Oops, an error
Loading. Please wait.

Anticuerpo Tab

by Octavia
27 views 1 this week
no commentswrite comment
1 2 3 4 5
3 more votes to show rating
add to favorites
launch autoscroll
font size
0
reset
how to read this tab
guitar tuner
×
Best way to learn
"Anticuerpo"
Autoscroll
slow
fast
+/-
esc
set tempo
stop
Esta rola saldrá en el último disco de Octavia, yo la saque del
concierto acústico ?Escala de Mano? donde fue que la presentaron,
esta muy buena, espero que les guste.

ANTICUERPO
OCTAVIA

Intro:

            Bm            Bm                  F#m       Bm
e--5--3--2--------5-3--2----------5---3---2---------------------------
B-----------3---3---------33---3--------------2--2------3--3----------
G--------------------------------------------------2----4--4----------
D----------------------------------------------------4--4--4----------
A---------------------------------------------------------------------
E---------------------------------------------------------------------

             Bm            Bm                  F#m       Bm
e---5--3--2--------5-3--2----------5---3---2--------------------------
B--3---------3---3---------33---3--------------2--2------3--3---------
G---------------------------------------------------2----4--4---------
D-----------------------------------------------------4--4--4---------
A---------------------------------------------------------------------
E---------------------------------------------------------------------

        Bm(tarns)    LA               Bm                     Bm(tarns)
e---------------------------------------------------------------------
B--------------5--3-------------------3--3---33-2-3--3----------------
G-4--6--7--7---------6--6------6------4--4---44-2-4--4--4--6--7--7----
D-------9--9---------7--7----7---7----4--4---44-2-4--4--------9--9----
A------10-10---------7--7--7-------7-------------------------10-10----
E---------------------------------------------------------------------
        LA           Bm
e----------------------------2----------------------------------------
B-5--3---------------------3------------------------------------------
G-------6------6---------4--------------------------------------------
D-------7----7--7------4----------------------------------------------
A-------7--7------7--2------------------------------------------------
E---------------------------------------------------------------------

(Verso)

SIm x 4

SIm             SOL 
Yo necesito tus besos
      LA            SOL -FA#m
Yo necesito un anticuerpo
SIm                    SOL 
Cada espacio que llevo dentro
 LA                  SOL -FA#m
Va sintiendo ya el efecto


(Coro)

    SOL          LA 
 ?Yo necesito de vos
SIm                   (SIm-LA -SOL -FA#m)*
   Gritan mis brazos abiertos
SOL               LA 
Sin ti esta desolación
     SIm
Crecerá?

SIm                  SOL 
Siento que todos mis huesos
LA                    SOL -FA#m
Vibran al compás de espera
SIm                SOL 
Vertiginoso es el veneno
           LA            SOL -FA#m
Que va trepando por mis venas

    SOL          LA 
 ?Yo necesito de vos
SIm                   (SIm-LA -SOL -FA#m)*
   Gritan mis brazos abiertos
SOL               LA 
Sin ti esta desolación
     SIm
Crecerá?


(En esta parte viene el piano y se acompañaron estas notas)

(SIm - SOL  - LA  - (SOL -FA#m) )x 3
Sim - SolM - LaM - (Sim-LAM-SolM-FA#m)*


    SOL          LA 
 ?Yo necesito de vos
SIm                   (SIm-LA -SOL -FA#m)*
   Gritan mis brazos abiertos
SOL               LA 
Sin ti esta desolación
    SIm         (SIm-LA -SOL -FA#m)*
Crecerá
SOL               LA 
Sin ti esta desolación
    SIm
Matara.

*De esta parte no estoy muy seguro, cualquier duda o sugerencia
escríbeme a luiscralos@
Suggest correction
Give kudos to tab author, rate the tab!
1 2 3 4 5
comments
print report bad tab
guest
You may want to rate the tab now too:
select rating
Wanna post a correction for this tab? Suggest correction