Oops, an error
Loading. Please wait.

Azul Eterno Tab

version 1
version 1

Whole song

32 views 1 this week
no commentswrite comment
1 2 3 4 5
3 more votes to show rating
add to favorites
launch autoscroll
font size
0
reset
how to read this tab
guitar tuner
Autoscroll
slow
fast
+/-
esc
set tempo
stop
Help us to improve Ultimate-Guitar.com Take our survey!
×
(ö)(ö)(ö)(ö)(ö)(ö)(ö)(ö)(ö)(ö)(ö)(ö)(ö)(ö)(ö)(ö)(ö)(ö)(ö)(ö)(ö)(ö)(ö)(ö)
ESTA ES UNA PEQUEÑA AYUDA EN ALGUNAS PARTES DEL PUNTEO:
PARA LA PARTE DE LOS COROS:

    F                  Dm        C       C*  C
e:------------------|---------|--------------------|
B:------------------|---------|--------------------|
G:10-10/14-14-14-14-|14/10-10-|10/9-9-9-9/7-7-7/5-5|
D:------------------|---------|--------------------|
A:------------------|---------|--------------------|
E:------------------|---------|--------------------|


   F                  Dm              C           C*     C
e:--------------|--------------|-8-8/12-12-12-12/13/12-10-10-10/8-8|
B:--------------|10-10/13-13-13|-----------------------------------|
G:10-10/14-14-14|--------------|-----------------------------------|
D:--------------|--------------|-----------------------------------|
A:--------------|--------------|-----------------------------------|
E:--------------|--------------|-----------------------------------|

PARA LA SEGUNDA PARTE DESPUES DE LA QUENA INTERMEDIA

   Am         Em         D               G
e:-0---------|----------|------------|---------------|
B:-1----0-1--|----0-----|-3------3-3-|---------------|
G:-2-2-2---2-|-0-0-2-0--|-2-0/2-2-2--|---------------|
D:-2---------|-2------2-|------------|--4/5-5-3-2----|
A:-0---------|-2--------|------------|-----------3-5-|
E:-----------|-0--------|------------|---------------|

C*
E:-0-|
B:-3-|
G:-0-|
D:-2-|
A:-3-|
E:-0-|

DESPUES DE ESTO VIENE NUEVAMENTE EL CORO EN EL QUE
 EL 'PUNTEO' SE REPITE
cualquier duda solo escribeme para que
podamos mejorar la cancion a:

centamuse151086@
centauro151086@
centauro@

(ö)(ö)(ö)(ö)(ö)(ö)(ö)(ö)(ö)(ö)(ö)(ö)(ö)(ö)(ö)(ö)(ö)(ö)(ö)(ö)(ö)(ö)(ö)(ö)
Suggest correction
Give kudos to tab author, rate the tab!
1 2 3 4 5
comments
print report bad tab
guest
You may want to rate the tab now too:
select rating
Wanna post a correction for this tab? Suggest correction