Oops, an error
Loading. Please wait.

Azul Eterno Tab

version 2
version 2

Whole song

by Octavia
37 views 1 this week
no commentswrite comment
1 2 3 4 5
3 more votes to show rating
add to favorites
launch autoscroll
font size
0
reset
how to read this tab
guitar tuner
×
Best way to learn
"Azul Eterno"
Autoscroll
slow
fast
+/-
esc
set tempo
stop
TRANSCRITO POR: Omar Miranda
21/08/2005

ACORDES:

   D5  Dsus4 Csus2  Am  Em  D   Dm  G   F  Cadd9  C
e|-------3-----3----0---0---2---1---3---1---0-----0--|
B|--3----3-----1----1---0---3---2---0---1---3-----1--|
G|--2----0-----0----2---0---2---3---0---2---0-----0--|
D|--0----0-----0----2---2---0-------0---3---2-----2--|
A|------------------0---2-----------2---3---3-----3--|
E|----------------------0-----------3---1------------|


INTRO:

    D5                Dsus4             Csus2             Csus2
e|------------------|-----------------|-----------------|------------------|
B|--3-1---3-1---3-1-|-3-1---3-1---3-1-|-3-1---3-1---3-1-|-3-1---3-1---3-1--|PIANO
G|------2-----2-----|-----2-----2-----|-----0-----0-----|-----0-----0------|
D|------------------|-----------------|-----------------|------------------|
A|------------------|-----------------|-----------------|------------------|
E|------------------|-----------------|-----------------|------------------|
 |                  |                 |                 |                  |
 |                  |                 |                 |                  |
e|------------------|-----------------|-8--10--12-------|------------------|
B|------------------|-----------------|-----------------|------------------|FLAUTA
G|------------------|-9---------------|-----------------|-9----------------|
D|------------------|-----------------|-----------------|------------------|
A|------------------|-----------------|-----------------|------------------|
E|------------------|-----------------|-----------------|------------------|


    D5                Dsus4             Csus2             C
e|------------------|-----------------|-----------------|------------------|
B|--3-1---3-1---3-1-|-3-1---3-1---3-1-|-3-1---3-1---3-1-|-3-1---3-1---3-1--|PIANO
G|------2-----2-----|-----2-----2-----|-----0-----0-----|-----0-----0------|
D|------------------|-----------------|-----------------|------------------|
A|------------------|-----------------|-----------------|------------------|
E|------------------|-----------------|-----------------|------------------|
 |                  |                 |                 |                  |
 |                  |                 |                 |                  |
e|--8--10--12-------|-----------------|-----------------|------------------|
B|------------------|-10--------------|-----------------|------------------|FLAUTA
G|------------------|-----------------|-12--10----------|-12---------------|
D|------------------|-----------------|-----------------|------------------|
A|------------------|-----------------|-----------------|------------------|
E|------------------|-----------------|-----------------|------------------|
                                                                 Yo no te ofrecí.....

VERSO:

C            Am
Yo no te ofrecí mi amor
           Em
Repetía el viento
              D
Tu piel en mi piel
          Dm
Curiosa razón
     G
Que atravesó en mi alma

G             Am
Cuando me acerque a ti
             Em
No pretendía nada
           D               Dm
Fue tu corazón el que me tiño
     G
De azul eterno el alma

CORO:

   G           F           Dm       Cadd9 C Cadd9 C
e|---------------------|---------|-------------------------|
B|-------------6-10-10-|--10-6-6-|--6-5-5--5-5-3--3-3-1-1--|
G|---------------------|---------|-------------------------|
D|---------------------|---------|-------------------------|
A|---------------------|---------|-------------------------|
E|---------------------|---------|-------------------------|
   Y en tus sonrisas volveré a na___cer

                 F           Dm  Cadd9 C Cadd9 C
e|-----------------------|------8-8-|-8-8-12-12--12-12-10-10-10-8-|
B|---------------6-10-10-|---10-----|-----------------------------|
G|-----------------------|----------|-----------------------------|
D|-----------------------|----------|-----------------------------|
A|-----------------------|----------|-----------------------------|
E|-----------------------|----------|-----------------------------|
   Y por tus  caricias me deslizare

               F         Dm        Cadd9 C Cadd9 C
e|---------------------|---------|-------------------------|
B|-------------6-10-10-|--10-6-6-|--6-5-5--5-5-3--3-3-1----|
G|---------------------|---------|-------------------------|
D|---------------------|---------|-------------------------|
A|---------------------|---------|-------------------------|
E|---------------------|---------|-------------------------|
   Y en tus caderas volveré a amanecer

                 F           Dm  Cadd9 C Cadd9 C
e|-----------------------|------8-8-|-8-8-12-12--12-13-12-10-12-10-8-8-|
B|---------------6-10-10-|---10-----|----------------------------------|
G|-----------------------|----------|----------------------------------|
D|-----------------------|----------|----------------------------------|
A|-----------------------|----------|----------------------------------|
E|-----------------------|----------|----------------------------------|
    Y ante tus pupilas me desnudare

INTERMEDIO:

   Am                 Am                       Em         Em
e|------------------|-----------------|-8--10--12-------|------------------|
B|------------------|-----------------|-----------------|------------------|FLAUTA
G|------------------|-9---------------|-----------------|-9----------------|
D|------------------|-----------------|-----------------|------------------|
A|------------------|-----------------|-----------------|------------------|
E|------------------|-----------------|-----------------|------------------|

           D          Dm                     G            G
e|--8--10--12-------|-----------------|-8-10-12---------|------------------|
B|------------------|-10--------------|-----------------|-8----------------|FLAUTA
G|------------------|-----------------|-----------------|------------------|
D|------------------|-----------------|-----------------|------------------|
A|------------------|-----------------|-----------------|------------------|
E|------------------|-----------------|-----------------|------------------|


    G           Am
e|-------------------------------|
B|----------------------0--1-----|
G|------------------2-2-------2--|
D|-------------------------------|
A|-------------------------------|
E|-------------------------------|
    Tengo mil palabras más

                Em
e|-------------------------------|
B|-------------------------------|
G|----------------0-4-2-0--------|
D|------------------------2------|
A|-------------------------------|
E|-------------------------------|
   Que rozan el aire

             D              Dm
e|---------------------------------|
B|---------------------------------|
G|---------------7--------------7--|
D|-----------5-7------------5-7----|
A|---------------------------------|
E|---------------------------------|
   Pero callare y me entregare

         G
e|-------------------------------|
B|-------------------------------|
G|-------0-----------------------|
D|---------3-2----0--------------|
A|--------------3----------------|
E|-------------------------------|
   Al lenguaje de tu piel


CORO:

   G           F           Dm       Cadd9 C Cadd9 C
e|---------------------|---------|-------------------------|
B|-------------6-10-10-|--10-6-6-|--6-5-5--5-5-3--3-3-1-1--|
G|---------------------|---------|-------------------------|
D|---------------------|---------|-------------------------|
A|---------------------|---------|-------------------------|
E|---------------------|---------|-------------------------|
   Y en tus sonrisas volveré a na___cer

                 F           Dm  Cadd9 C Cadd9 C
e|-----------------------|------8-8-|-8-8-12-12--12-13-12-10-12-10-8-10-8-|
B|---------------6-10-10-|---10-----|-------------------------------------|
G|-----------------------|----------|-------------------------------------|
D|-----------------------|----------|-------------------------------------|
A|-----------------------|----------|-------------------------------------|
E|-----------------------|----------|-------------------------------------|
   Y por tus  caricias me deslizare

               F         Dm        Cadd9 C Cadd9 C
e|---------------------|---------|-----------------------------|
B|-------------6-10-10-|--10-6-6-|--5-6-5-5-6-5-5-6-5-3-5-3-1--|
G|---------------------|---------|-----------------------------|
D|---------------------|---------|-----------------------------|
A|---------------------|---------|-----------------------------|
E|---------------------|---------|-----------------------------|
   Y en tus caderas volveré a amanecer

                 F           Dm  Cadd9 C Cadd9 C
e|-----------------------|------8-8-|--12-12-10-10-10-8-8-8-7--|
B|---------------6-10-10-|---10-----|--------------------------|
G|-----------------------|----------|--------------------------|
D|-----------------------|----------|--------------------------|
A|-----------------------|----------|--------------------------|
E|-----------------------|----------|--------------------------|
    Y ante tus pupilas me desnudare

    F    Dm               Cadd9 C Cadd9 C
e|--12-|-12-10----10-12-|--13-12-10--------|
B|-----|-------13-------|-----------13-10--|FLAUTA
G|-----|----------------|------------------|
D|-----|----------------|------------------|
A|-----|----------------|------------------|
E|-----|----------------|------------------|

    F       Dm              Cadd9 C Cadd9 C
e|--17-17-|-17-15-13-12-|-------------------------|
B|--------|-------------|--15-13---13----13----13-|FLAUTA
G|--------|-------------|--------14---14----14----|
D|--------|-------------|-------------------------|
A|--------|-------------|-------------------------|
E|--------|-------------|-------------------------|

    F         Dm             Cadd9 C
e|-17-17-17-|-15-13-12-----|----------------|
B|----------|----------15--|----13----------|FLAUTA
G|----------|--------------|-14-------------|
D|----------|--------------|----------------|
A|----------|--------------|----------------|
E|----------|--------------|----------------|


ESPERO QUE SEA DE TU AGRADO
CUALQUIER DUDA, CONCEJO O COMENTARIO
POR FAVOR ESCRIBIR
A MI NUEVO CORREO: omctabs@
Suggest correction
Give kudos to tab author, rate the tab!
1 2 3 4 5
comments
print report bad tab
guest
You may want to rate the tab now too:
select rating
Wanna post a correction for this tab? Suggest correction