Oops, an error
Loading. Please wait.

Boomerang Tab

by Octavia
25 views 1 this week
no commentswrite comment
1 2 3 4 5
3 more votes to show rating
add to favorites
launch autoscroll
font size
0
reset
how to read this tab
guitar tuner
×
Best way to learn
"Boomerang"
Autoscroll
slow
fast
+/-
esc
set tempo
stop
TRANSCRITO POR: Omar Miranda
18/05/2005

ACORDES:

   D7   D5 F#m  D7M(I) C#m  Bm7 D(I) B5 A5   A   D   E  A(I) E(I) F#5  E5
e|----------2-----------0----2---5-----------0---2---4----5----7----------|
B|----------2-----2-----5----3---7-----------2---3---5----5----9----------|
G|--6---7---2-----2-----6----2---7---4---2---2---2---4----6----9-------9--|
D|--7---7---4-----0-----6----4---7---4---2---2---0---2----7----9---4---9--|
A|--5---5---4-----0-----4----2---5---2---0---0------------7----7---4---7--|
E|----------2-----2---------------------------------------5--------2------|


INTRO:

         
D7  D5 F#m  |>*2
         /

VERSO:

D7M(I)     F#m
Tal vez el tiempo
       C#m      Bm7
Nos permita ver
D7M(I)      F#m
Que algunas cosas
     C#m            D
Si regresaran yeihh yeahh

                B5            F#5                     B5                     A5
e|-------------------------|-----------------------|---------------------|---------------------|
B|-------------------------|-----------------------|---------------------|---------------------|
G|-------------------------|-----------------------|---------------------|---------------------|
D|-------------------------|-----------------------|---------------------|---------------------|
A|--------------2--4-5-----|-----------------------|----------2--4-------|---------------------|
E|-------------------------|--2--5---7--5---4---2--|----------------5----|--2--5-7---5---4-2---|
   Igual que un boomerang     El viento nos traerá  Todas las manos que     Tendimos sin dudar

                B5            F#5                     B5                     E5
e|-------------------------|-----------------------|---------------------|---------------------|
B|-------------------------|-----------------------|---------------------|---------------------|
G|-------------------------|-----------------------|---------------------|---------------------|
D|-------------------------|-----------------------|---------------------|---------------------|
A|--------------2--4-7-----|-----------------------|----------2--4--5----|--7------------------|
E|-------------------------|--2--5---7--5--4-2-----|---------------------|---------------------|
 E igual que un boomerang     El viento azotara   Las mismas puertas que    Cerramos alguna vez


A              D
Te amo porque das caricias
      E               D
e|----------|-------------12-10-9-10-12-14-12--|
B|----------|----------------------------------|Esta es la parte
G|----------|----------------------------------|De la Quena
D|----------|----------------------------------|
A|----------|----------------------------------|
E|----------|----------------------------------|
   Que no esperas recibir
A              D
Nunca pierdas la pureza
      E                 D
e|----------|-------------12-10-9-10-12-14-12--|
B|----------|----------------------------------|Esta es la parte
G|----------|----------------------------------|De la Quena
D|----------|----------------------------------|
A|----------|----------------------------------|
E|----------|----------------------------------|
   De entregar por entregar
A(I)       D(I)      E(I)
Tu mirada tiene aire que
D(I)
Jamás pude tener


INTERMEDIO:

         
D7  D5 F#m  |>*2
         /


VERSO:

D7M(I)     F#m
Tal vez el tiempo
       C#m        Bm7
Nos pueda enseñar
D7M(I)      F#m
Que no hay viaje
             C#m      D
Completo sin retornar

                B5            F#5                       B5                     A5
e|-------------------------|-------------------------|---------------------|---------------------|
B|-------------------------|-------------------------|---------------------|---------------------|
G|-------------------------|-------------------------|---------------------|---------------------|
D|-------------------------|-------------------------|---------------------|---------------------|
A|--------------2--4-5-----|-------------------------|----------2--4-------|---------------------|
E|-------------------------|--2---5--7----5---4---2--|----------------5----|--2--5-7---5-4--2----|
   Igual que un boomerang     Las lluvias nos caerán   Toda la sangre que     Pudimos  derramar

                B5            F#5                     B5                     E5
e|-------------------------|-----------------------|---------------------|---------------------|
B|-------------------------|-----------------------|---------------------|---------------------|
G|-------------------------|-----------------------|---------------------|---------------------|
D|-------------------------|-----------------------|---------------------|---------------------|
A|--------------2--4-7-----|-----------------------|----------2--4--5----|--7------------------|
E|-------------------------|--2--5---7--5--4-2-----|---------------------|---------------------|
 E igual que un boomerang     La lluvia lanzara     a nuestras tumbas    Las flores que supimos Sembrar


A              D
Te amo porque das caricias
      E               D
e|----------|-------------12-10-9-10-12-14-12--|
B|----------|----------------------------------|Esta es la parte
G|----------|----------------------------------|De la Quena
D|----------|----------------------------------|
A|----------|----------------------------------|
E|----------|----------------------------------|
   Que no esperas recibir
A              D
Nunca pierdas la pureza
      E                 D
e|----------|-------------12-10-9-10-12-14-12--|
B|----------|----------------------------------|Esta es la parte
G|----------|----------------------------------|De la Quena
D|----------|----------------------------------|
A|----------|----------------------------------|
E|----------|----------------------------------|
   De entregar por entregar
A(I)       D(I)      E(I)
Tu mirada tiene aire que
D(I)
Jamás pude tener


A(I)           D(I)
Te amo porque das caricias
      E(I)            D(I)
e|----------|-------------12-10-9-10-12-14-12--|
B|----------|----------------------------------|Esta es la parte
G|----------|----------------------------------|De la Quena
D|----------|----------------------------------|
A|----------|----------------------------------|
E|----------|----------------------------------|
   Que no esperas recibir
A(I)           D(I)
Nunca pierdas la pureza
      E(I)              D(I)
e|----------|-------------12-10-9-10-12-14-12--|
B|----------|----------------------------------|Esta es la parte
G|----------|----------------------------------|De la Quena
D|----------|----------------------------------|
A|----------|----------------------------------|
E|----------|----------------------------------|
   De entregar por entregar
A(I)       D(I)      E(I)
Tu mirada tiene aire que
D(I)
Jamás pude tener


ESPERO QUE SEA DE TU AGRADO
CUALQUIER DUDA, CONCEJO O COMENTARIO
POR FAVOR ESCRIBIR
A MI NUEVO CORREO: omctabs@
Suggest correction
Give kudos to tab author, rate the tab!
1 2 3 4 5
comments
print report bad tab
guest
You may want to rate the tab now too:
select rating
Wanna post a correction for this tab? Suggest correction