Oops, an error
Loading. Please wait.

Cenizas Tab

10 views 1 this week
no commentswrite comment
1 2 3 4 5
3 more votes to show rating
add to favorites
launch autoscroll
font size
0
reset
how to read this tab
guitar tuner
×
Best way to learn
"Cenizas"
Autoscroll
slow
fast
+/-
esc
set tempo
stop
(ö)(ö)(ö)(ö)(ö)(ö)(ö)(ö)(ö)(ö)(ö)(ö)(ö)(ö)(ö)(ö)(ö)(ö)(ö)(ö)(ö)(ö)(ö)(ö)(ö)(ö)(ö)(ö)(ö)
absolutamente todo en 9ª
FGA
FGA
FGFG
A*

(1)SOLO CON EL BAJO 'E'(ACONPAÑADO DE BATERIA)

  E:|-2-0/1/2-| (SE REPITE EN CADA VERSO AL PRINCIPIO)

  |nunca fuimos tan sinceros
  |y tan dañinos a la vez
1F      G        A*
quemare nuestro altar
F         G        A*
de todos los recuerdos
F            G
dejare en las cenizas
F         G
toda tempestad
A*               A*
el humo nos liberara
F            G
dejare en las cenizas
F         G
toda tempestad
A*   A*

  |siempre fuimos tan intensos
  |nos falto serenidad
1F      G        A*
quemare nuestro altar
F         G        A*
de todos los recuerdoooos
F            G
dejare en las cenizas
F         G
toda tempestad
A*               A*
el humo nos liberara
F      G        A*
quemare nuestro altaaar  yeeah
F         G        A*
de todos los recuerdos
F            G
dejare en las cenizas
F         G
toda tempestad
A*
el humo nos libera
F            G
dejare en las cenizas
F         G
toda tempestad
A*              A*
el humo nos libera
F            G
dejare en las cenizas
F         G
toda tempestad
A*A*
A*                  A*
quemare nuestro altaaar...

-0-
la duda que debes tener es 'A*', se puede tomar de varias formas por comodidad
LA PRIMER FORMA:
   -simplemente con el bajo
e:-----------------------------|
B:-----------------------------|
G:-----------------------------|
D:-----------------------------|
A:-----------------------------|
E:5--5--3--5--3--5--3--5--3--5-|

LA SEGUNDA FORMA:
  -deslizando desde G9 hasta A9 la siguiente forma:
  A9  A9 G9  A9  G9   A9 G9  A9  G9  A9
e:--------------------------------------|
B:--------------------------------------|
G:6---6---4---6---4---6---4---6---4---6-|
D:7---7---5---7---5---7---5---7---5---7-|
A:7---7---5---7---5---7---5---7---5---7-|
E:5---5---3---5---3---5---3---5---3---5-|

LA TERCER FORMA:
   -manteniendo pisado el A9 pero cambiando el bajo, es decir:
  A9  A9 A9/G A9 A9/G A9 A9/G A9 A9/G A9
e:--------------------------------------|
B:--------------------------------------|
G:6---6---6---6---6---6---6---6---6---6-|
D:7---7---7---7---7---7---7---7---7---7-|
A:7---7---7---7---7---7---7---7---7---7-|
E:5---5---3---5---3---5---3---5---3---5-|

LA CUARTA FORMA:
   -es talvez la mas facil, y ademas no le quita el efecto:
   A9.................................
e:--------------------------------------|
B:--------------------------------------|
G:6---6---0---6---0---6---0---6---0---6-|
D:7---7---7---7---7---7---7---7---7---7-|
A:7---7---7---7---7---7---7---7---7---7-|
E:5---5---5---5---5---5---5---5---5---5-|

        _/_/_/_/_/_/_/_/_/_/_/_/_/_/_/_/_/_/_/_/_/_/_/_/_/_/_/_/_/_/_/_/_/_/
       _/                                                                _/
      _/   _/_/_/_/_/  _/_/_/_/_/  _/_/_/_/_/   _/      _/  _/_/_/_/_/  _/
     _/       _/      _/      _/  _/           _/      _/  _/          _/
    _/       _/      _/      _/  _/_/_/_/_/   _/      _/  _/_/_/_/    _/
   _/       _/      _/      _/          _/   _/      _/  _/          _/
  _/   _/_/_/      _/_/_/_/_/  _/_/_/_/_/   _/_/_/_/_/  _/_/_/_/_/  _/
 _/                                                                _/
_/_/_/_/_/_/_/_/_/_/_/_/_/_/_/_/_/_/_/_/_/_/_/_/_/_/_/_/_/_/_/_/_/_/

si crees que se podria arreglar escribeme a:
centamuse151086@
centauro151086@
centauro@

ayudame a perfeccionar esta cancion!!!
(pronto publicare el repertorio de octavia en 5ª)
(ö)(ö)(ö)(ö)(ö)(ö)(ö)(ö)(ö)(ö)(ö)(ö)(ö)(ö)(ö)(ö)(ö)(ö)(ö)(ö)(ö)(ö)(ö)(ö)(ö)(ö)(ö)(ö)(ö)
Suggest correction
Give kudos to tab author, rate the tab!
1 2 3 4 5
comments
print report bad tab
guest
You may want to rate the tab now too:
select rating
Wanna post a correction for this tab? Suggest correction