Oops, an error
Loading. Please wait.

Cuecaina Chords

by Octavia
35 views 1 this week
no commentswrite comment
1 2 3 4 5
3 more votes to show rating
add to favorites
launch autoscroll
font size
0
reset
transpose
0
reset
simplify chords
display chords
guitar tuner
Autoscroll
slow
fast
+/-
esc
set tempo
stop
Strumming
There is no strumming pattern for this song yet. and get +5 IQ
CUECAINA
OCATVIA 
LP AURA

TRANSCRITO POR: Omar Miranda
27/04/2002


   C    Gadd9   D    A    Bm     F#m     G     Em7   E    Am   B7sus4  Dsus4
e--0------3-----3----0-----2------2------3-----3-----0-----0-----2-------3---
G--1------0-----2----2-----3------2------3-----0-----0-----1-----0-------3---
B--0------2-----3----2-----4------2------4-----0-----1-----2-----2-------2---
D--2------0-----0----2-----4------4------5-----0-----2-----2-----2-----------
A--3-----------------0-----2------4------5-----2-----2-----0-----------------
E--0-----------------0-----2------2------3-----0-----0-----0-----------------

INTRO:
 
C Gadd9 D A  *3
C Gadd9 D

INICIO DE LA BATERIA 

Bm   A      F#m         G
  Frio dime si el calor es humano
Bm   A       F#m          Em7
  Miedo dime si hay valor en llorar
Bm   A       F#m           G
  Clefa dime si por dentro estoy entero
Bm   A       Em7
  Dolor dame un poco mas de alcohol


C          G       D
y quien me puede decir
        A                C
si hago bien o hago mal
           G          D    A
y quien me puede entender  oh lo que....
C          G       D 
y a quien le puede importar 
A         C      G          D    A
si yo.... mañana seguire aca...


Bm    A      F#m            G                   Bm
  Fuego dime si alguien vio,  si alguien vio mi hogar
    A       F#m          Em7
Muerte dime si eres como te soñe 
Bm    A       F#m   G
  Clefa....., aaalcohoool 
Bm       A           Em7
necesito un poco mas de amor


C          G       D
y quien me puede decir
        A           C
si hago bien o hago mal
           G          D    A
y quien me puede entender  oh oh
C          G       D  
y a quien le puede importar 
A         C      G          D    A
si yo.... mañana seguire aca...


C      G             
Mañana seguire aqui
D      A            C            G   
Mañana seguire aqui entre miedo, clefa y alchol
D            A
entre miedo, clefa y alchol
C      G  
Mañana Seguire aqui
D      A        C          G    D    A
Mañana  seguire aquiiiiiiiiii  yeee ohh


(Tocar en ritmo de cueca)

SE VA LA PIMERITA

(repetir dos veces)

       C           G           D     Dsus4        A    B7sus4
e-------0----|--------3---|-----2--2^3^2---|------0--0^2^0----|-
G------1-----|-------3----|----3--3-3-3----|-----2--2-0-2-----|-
B-----0------|------4-----|---2--2-2-2-----|----2--2-2-2------|-
D----2-------|-----5------|--0--0-0-0------|---2--2-2-2-------|-
A---3--------|----5-------|----------------|--0--0-0-0--------|-
E------------|---3--------|----------------|------------------|-


C          G         D     A
Y quien me puede juzgar Oh yeah yeah 
C          G         D     A
Y quien me puede abrazar Oh yeah
C            G          D     
Y a quien le puede importar
A       C      G           D     
Si yooo Mañana seguire aca
A
BUENO


C      G             
Mañana seguire aqui
D      A            C            G   
Mañana seguire aqui entre miedo, clefa y alchol
D            A
entre miedo, clefa y alchol
C      G  
Mañana Seguire aqui
D      A        C          G        D    E
Mañana  seguire aquiiiiiiiiii  yeee ohh
E  Am
Ya esta....


ESPERO QUE SEA DE TU AGRADO

CUALQUIR DUDA, CONSEJO O COMENTARIO 
POR FAVOR ESCRIBIR A: omarmc4@
Suggest correction
Give kudos to tab author, rate the tab!
1 2 3 4 5
comments
print report bad tab
guest
Wanna post a correction for this tab? Suggest correction