Oops, an error
Loading. Please wait.

Dime Que Hago Tab

42 views 1 this week
no commentswrite comment
1 2 3 4 5
3 more votes to show rating
add to favorites
launch autoscroll
font size
0
reset
how to read this tab
guitar tuner
×
Best way to learn
"Dime Que Hago"
Autoscroll
slow
fast
+/-
esc
set tempo
stop
TRANSCRITO POR: Omar Miranda
28/05/2003

NOTACION:

/ :DESLIZAR ABAJO
(N) :NOTA FANTASMA
S.A. :SIN ACORDE
^ :BEND


ACORDES:

 Bmadd11  E Aadd9 E(1) F#m  C  F7   F7M(1)  G  Dm  Cadd9 Em   A5  D5
e|--0-----0---0----4----2---0---0----0------3---1----0----0----------|
G|--3-----0---0----5----2---1---1----1------3---3----3----0-------3--|
B|--4-----1---6----4----2---0---2----2------0---2----0----0---2---2--|
D|--4-----2---7----6----4---2---3----3------0---0----2----2---2---0--|
A|--2-----2---7----7----4---3---0----3------2--------3----2---0------|
E|--------0---5----4----2------------0------3-------------0----------|


INTRO:

   S.A.  Bmadd11   E        Aadd9    E(1)   F#m     
e|-----|-----7--|--------|--------|-------|-----|
G|-----|----7---|-----9--|----0---|----5--|-----|
B|-----|---7----|----9---|---6-6--|---4---|--2--|
D|-----|--9-----|---9----|--7-----|--6----|--4--|
A|-----|--------|--7-----|--------|-------|-----|
E|--7--|--------|--------|--------|-------|-----|


  Bmadd11   E        Aadd9    E(1)   F#m     
e|-----7--|--------|--------|-------|-----|
G|----7---|-----9--|----0---|----5--|-----|
B|---7----|----9---|---6-6--|---4---|--2--|
D|--9-----|---9----|--7-----|--6----|--4--|
A|--------|--7-----|--------|-------|-----|
E|--------|--------|--------|-------|-----|


    C         F7           C         F7 
e|------7--|--------12--|------7--|--------12--|
G|-----8---|------10----|-----8---|------10----|
B|----9----|----10------|----9----|----10------|
D|--10-----|--10--------|--10-----|--10--------|
A|---------|------------|---------|------------|
E|---------|------------|---------|------------|

    C         F7           C        F7 
e|------7--|--------12--|------7--|--12--|
G|-----8---|------10----|-----8---|--10--|
B|----9----|----10------|----9----|--10--|
D|--10-----|--10--------|--10-----|--10--|
A|---------|------------|---------|------|
E|---------|------------|---------|------|


Bmadd11         E 
cada vez que mi cruz
            Aadd9 
llega a dominarme
E(1)               F#m
me convierto en un cerdo

Bmadd11            E
y esa luz que eres tú
            Aadd9 
da su mejor parte
E(1)          F#m
y recibe la peor

    C              F7               
e|---------------------0----------|
G|-----0--------------1-----------|
B|----0--------------2------------|
D|---2--------------3-------------|
A|--3-----------------------------|
E|--------------------------------|
       no sé si fue mi inconsciencia
            
    C              F7           F7M(1)
e|------------------0-------------|
G|-----0------------1-------------|
B|----0-------------2-------------|
D|---2--------------3-------------|
A|--3-----------------------------|
E|--------------------------------|
       o mi absurda dependencia

F7M(1)
quien me alejó de ti


G        Dm         F7         C
dime qué hago para hacerte olvidar
   C              G                  G
e|-------------|-----------------------|
G|-------------|-----------------------|
B|-------------|-----------------------|
D|-------------|-----------------------|
A|-------------|------0-0-2-2-0-2-0----|
E|-------------|--3-3------------------|
   mil lágrimas   que te hice derramar

G        Dm           F7         C
sólo le pido al cielo me perdones
Cadd9           G
y al fin me des otra oportunidad


Bmadd11          E 
cada vez que una flor
         Aadd9 
cae deshojada
E(1)            F#m
yo me siento culpable


Bmadd11           E
esa flor que eres tú
                 Aadd9 
no hizo más que amarme
E(1)         F#m
y yo la pisoteé


    C               F7               
e|-------7------------------12------|
G|------8-----------------10--------|
B|-----9----------------10----------|
D|---10---------------10------------|
A|----------------------------------|
E|----------------------------------|
       no sé si fue una promesa

    C           F7           F7M(1)
e|-------7--------12------------|
G|------8---------10------------|
B|-----9----------10------------|
D|---10-----------10------------|
A|------------------------------|
E|------------------------------|
       o tu confianza en mí

F7M(1)
lo que rompí aquí. 


G        Dm         F7         C
dime qué hago para hacerte olvidar
   C              G                  G
e|-------------|-----------------------|
G|-------------|-----------------------|
B|-------------|-----------------------|
D|-------------|-----------------------|
A|-------------|------0-0-2-2-0-2-0----|
E|-------------|--3-3------------------|
   mil lágrimas   que te hice derramar

G        Dm           F7         C
sólo le pido al cielo me perdones
Cadd9          Em            F#m G
y al fin me des otra oportunidad


G        Dm         F7         C
dime qué hago para hacerte olvidar
   C              G                  G
e|-------------|-----------------------|
G|-------------|-----------------------|
B|-------------|-----------------------|
D|-------------|-----------------------|
A|-------------|------0-0-2-2-0-2-0----|
E|-------------|--3-3------------------|
   mil lágrimas   que te hice derramar

G        Dm           F7         C
sólo le pido al cielo me perdones
Cadd9           G
y al fin me des otra oportunidad


SOLO:

    S.A.         A5         Em              A5                    D5
e|------------|----------|---------------|---------------------|-----------------------------|
G|------------|----------|---------------|---------------------|-----8-7---------------------|
B|---------5--|--7--7/9--|---------------|---------------------|---------9-7-5-5-7-7--7-5-0--|
D|--(2)/7-----|----------|--7-5----------|-----------5--5-7-5--|--0--------------------------|
A|------------|----------|------7-7-5-7--|--7--7-5-7-----------|-----------------------------|
E|------------|----------|---------------|---------------------|-----------------------------|

   A5                   Em                    A5           D5                    D5
e|-------------------|---------------------|-------7-8--|--10-----------------|--10-12-10-12-10-12-10-12--|
G|-------------------|----10^(10)^---10-8--|--10--------|-----8-----8--10-12--|---------------------------|
B|--------------5-7--|----9 ^(9 )^---------|------------|-------7-9-----------|---------------------------|
D|----7-5-7-5-7------|--0------------------|------------|---------------------|---------------------------|
A|--7----------------|---------------------|------------|---------------------|---------------------------|
E|-------------------|---------------------|------------|---------------------|---------------------------|


G        Dm         F7         C
dime qué hago para hacerte olvidar
   C              G                  G
e|-------------|-----------------------|
G|-------------|-----------------------|
B|-------------|-----------------------|
D|-------------|-----------------------|
A|-------------|------0-0-2-2-0-2-0----|
E|-------------|--3-3------------------|
   mil lágrimas   que te hice derramar

G        Dm           F7         C
sólo le pido al cielo me perdones
Cadd9          Em            F#m G
y al fin me des otra oportunidad


G        Dm         F7         C
dime qué hago para hacerte olvidar
   C              G                  G
e|-------------|-----------------------|
G|-------------|-----------------------|
B|-------------|-----------------------|
D|-------------|-----------------------|
A|-------------|------0-0-2-2-0-2-0----|
E|-------------|--3-3------------------|
   mil lágrimas   que te hice derramar
   (dime que hago, dime que hago)

G        Dm           F7         C
sólo le pido al cielo me perdones
(dime que hhhhhhhhhhaaaaaaaaaaaagoooo)
Cadd9           G
y al fin me des otra oportunidad
(dime que hhhhhaaaaaaaaaaagooooo)


ESPERO QUE SEA DE TU AGRADO

CUALQUIR DUDA, CONCEJO O COMENTARIO 
POR FAVOR ESCRIBIR A: omarmc4@
Suggest correction
Give kudos to tab author, rate the tab!
1 2 3 4 5
comments
print report bad tab
guest
You may want to rate the tab now too:
select rating
Wanna post a correction for this tab? Suggest correction