Oops, an error
Loading. Please wait.

Disco Lipstick Tab

version 1
version 1

Whole song

by Octavia
30 views 1 this week
no commentswrite comment
1 2 3 4 5
3 more votes to show rating
add to favorites
×
Save as Personal and add changes to this tab that will be seen only by you. Learn more ›
×
You can save this tab as Personal to edit and correct it or add notes. All changes will be seen only by you. Learn more »
save as personal
new!
launch autoscroll
font size
0
reset
how to read this tab
guitar tuner
Autoscroll
slow
fast
+/-
esc
set tempo
stop
TRANSCRITO POR: Omar Miranda
15/07/2003


NOTACION:

S.A. :SIN ACORDE

ACORDES:

   D7   G7   F#m7 C#m7(b5) C#dim Bm7(b5) Bdim  A7   B7sus4  Asus4
e|--5----7----2---------------------------------9-----7------------|
G|--7----7----2------5-------5-----3------3-----9-----7------------|
B|--6----7----2------4-------3-----2------1-----9-----9-------7----|
D|--7----5----2------5-------5-----3------3-----7-----7------------|
A|--5---------4------4-------4-----2------2-----------9-------7----|
E|--5---------2---------------------------------------7-------5----|

ESTA TRANCRIPCION ESTA BASADA EN LA TABLATURA DE LA PAGINA OFICIAL DE OCTAVIA

INTRO:
           \
  D7   G7  |> * 6
           /


D7              G7 
   no castigues más mis oídos
D7              G7  
   no me llames más
D7                G7  
   no sé si es tu voz, o el sonido
D7                   G7  
   lo que no aguanto más

    F#m7                  C#m7(b5)     F#m7                 C#m7(b5)
e|---------------------|------------|---------------------|---------------|
G|---------------------|------------|---------------------|---------------|
B|------7-----7-----7--|--9-10-9-7--|------7-----7-----7--|---------------|
D|--7-9---7-9---7-9----|------------|--7-9---7-9---7-9----|--7-5-5-4-5-4--|
A|---------------------|------------|---------------------|---------------|
E|---------------------|------------|---------------------|---------------|
   dame un segundo para respirar       nunca el silencio fue una necesidad

    F#m7          C#m7(b5)  C#dim  Bm7(b5)  Bdim
e|---------------|-------------------------------|
G|---------------|--5---------5-------3-------3--|
B|------7-----7--|--4---------3-------2-------1--|
D|--7-9---7-9----|--5---------5-------3-------3--|
A|---------------|--4---------4-------2-------2--|
E|---------------|-------------------------------|
   y es que me es___tás       ma______tan_____do


G7          A7   
yo necesito paz
             B7sus4  
ya no quiero hablar
        Asus4                    G7 
no me importa lo que tengas que decir
               A7 
yo nunca fui feliz
            B7sus4
nunca quise oír
        Asus4                    D7    G7 
no me importa lo que tengas que decir


D7       G7 
uuuuhhhh aaaaaahhh
D7    G7 
D7    G7 


D7              G7 
  me gustan tus labios de seda
D7               G7 
  y en silencio, más
D7           G7 
  eres una diosa eres bella
D7              G7 
  hasta que empiezas a hablar


    F#m7                     C#m7(b5)       F#m7                    C#m7(b5)
e|------------------------|--------------|------------------------|----------------|
G|------------------------|--------------|------------------------|----------------|
B|-------9------9------9--|--11-12-11-9--|-------9------9------9--|----------------|
D|--9-11---9-11---9-11----|--------------|--9-11---9-11---9-11----|--9-7-9-7-9-11--|
A|------------------------|--------------|------------------------|----------------|
E|------------------------|--------------|------------------------|----------------|
      no sé qué tienes que recriminar       creo que un sordo te amaría más


    F#m7             C#m7(b5)  C#dim  Bm7(b5)  Bdim
e|-----------------|-------------------------------|
G|-----------------|--5---------5-------3-------3--|
B|--------9-----9--|--4---------3-------2-------1--|
D|--9-11---9-11----|--5---------5-------3-------3--|
A|-----------------|--4---------4-------2-------2--|
E|-----------------|-------------------------------|
  y es que me    es___tás       ma______tan_____do 


G7          A7   
yo necesito paz
             B7sus4  
ya no quiero hablar
        Asus4                    G7 
no me importa lo que tengas que decir
               A7 
yo nunca fui feliz
            B7sus4
nunca quise oír
        Asus4                    G7 
no me importa lo que tengas que decir


G7          A7   
yo necesito paz
             B7sus4  
ya no quiero hablar
        Asus4                    G7 
no me importa lo que tengas que decir
               A7 
yo nunca fui feliz
            B7sus4
nunca quise oír
        Asus4                    S.A.
no me importa lo que tengas que decir


(BATERIA) S.A.


    F#m7                     C#m7(b5)       F#m7                    C#m7(b5)
e|------------------------|--------------|------------------------|----------------|
G|-------9------9---------|--------------|-------9------9---------|----------------|
B|-------9------9------9--|--11-12-11-9--|-------9------9------9--|----------------|
D|--9-11---9-11---9-11----|--------------|--9-11---9-11---9-11----|--9-7-9-7-9-11--|
A|------------------------|--------------|------------------------|----------------|
E|------------------------|--------------|------------------------|----------------|
      dame un segundo para  respirar        nunca el silencio fue una necesidad


    F#m7             C#m7(b5)  C#dim  Bm7(b5)  Bdim
e|-----------------|-------------------------------|
G|-------9------9--|--5---------5-------3-------3--|
B|-------9------9--|--4---------3-------2-------1--|
D|--9-11---9-11----|--5---------5-------3-------3--|
A|-----------------|--4---------4-------2-------2--|
E|-----------------|-------------------------------|
  y es que me    es___tás       ma______tan_____do 


G7          A7   
yo necesito paz
             B7sus4  
ya no quiero hablar
        Asus4                    G7 
no me importa lo que tengas que decir
               A7 
yo nunca fui feliz
            B7sus4
nunca quise oír
        Asus4                    G7 
no me importa lo que tengas que decir


G7          A7   
yo necesito paz
             B7sus4  
ya no quiero hablar
        Asus4                    G7 
no me importa lo que tengas que decir
               A7 
yo nunca fui feliz
            B7sus4     Asus4 
nunca quise oír    yaaahaaa........... 

G7  A7             

B7sus4                   Asus4                    
lo que tengas que decir, loque tengas que decir
G7                       A7 
lo que tengas que decir, loque tengas que decir
B7sus4            Asus4
ouhhh no no no no no yeheeey yeeehee........
G7      A7              B7sus4  
...........no me llames más


ESPERO QUE SEA DE TU AGRADO

CUALQUIR DUDA, CONCEJO O COMENTARIO 
POR FAVOR ESCRIBIR A: omarmc4@
Suggest correction
Give kudos to tab author, rate the tab!
1 2 3 4 5
comments
print report bad tab
guest
Wanna post a correction for this tab? Suggest correction