Oops, an error
Loading. Please wait.

Disco Lipstick Tab

version 2
version 2

Whole song

by Octavia
12 views 1 this week
no commentswrite comment
1 2 3 4 5
3 more votes to show rating
add to favorites
launch autoscroll
font size
0
reset
how to read this tab
guitar tuner
×
Best way to learn
"Disco Lipstick"
Autoscroll
slow
fast
+/-
esc
set tempo
stop
BUENO LA ANTERIOR ESTA BUENA PERO TUVO UN ERROR EN LOS 1°ros ACORDES
ESTOS SON LOS ACORDES EMPLEADOS EN ESTA TONADA

 Dmaj7  Gmaj7  F#m7 C#m7 C#dim Bm7 Bdim Amaj7  B7sus4  Asus4
e|--5-----7-----2-------------------------9----7----------
b|--7-----7-----2----5-----5----3---3-----9----7----------
g|--6-----7-----2----4-----3----2---1-----9----9-------7--
D|--7-----5-----2----5-----5----3---3-----7----7----------
A|--5-----------4----4-----4----2---2----------9-------7--
E|--5-----------2------------------------------7-------5--
 otras formas de estos Acordes

    Dmaj7  Gmaj7  Amaj7
e|---2------2------0-------------------
b|---2------3------2-------------------
g|---2------4------1-------------------
D|---2------5------2-------------------
A|---x------x------0-------------------
E|---x------x------x-------------------

INTRO:
  Dmaj7  Gmaj7 (X6)


Dmaj7            Gmaj7
   no castigues más mis oídos
Dmaj7            Gmaj7
   no me llames más
Dmaj7              Gmaj7
   no sé si es tu voz, o el sonido
Dmaj7                 Gmaj7
   lo que no aguanto más

    F#m7            C#m7      F#m7             C#m7
e|----------------|---------|--------------|---------------|
G|----------------|---------|--------------|---------------|
B|----7----7----7-|9-10-9-7-|---7----7----7|---------------|
D|-7-9--7-9--7-9--|---------|7-9--7-9--7-9-|--7-5-5-4-5-4--|
A|----------------|---------|--------------|---------------|
E|----------------|---------|--------------|---------------|
dame un segundo para respirar nunca el silencio fue una necesidad

    F#m7           C#m7  C#dim  Bm7    Bdim
e|---------------|--------------------------|
G|---------------|--5------5-----3-------3--|
B|------7-----7--|--4------3-----2-------1--|
D|--7-9---7-9----|--5------5-----3-------3--|
A|---------------|--4------4-----2-------2--|
E|---------------|--------------------------|
   y es que me es__tás_____ma___tan_____do


Gmaj7     Amaj7
yo necesito paz
             B7sus4
ya no quiero hablar
        Asus4                    Gmaj7
no me importa lo que tengas que decir
               Amaj7
yo nunca fui feliz
            B7sus4
nunca quise oír
        Asus4                    Dmaj7  Gmaj7
no me importa lo que tengas que decir


Dmaj7      Gmaj7
uuuuhhhh aaaaaahhh

Dmaj7  Gmaj7
Dmaj7   Gmaj7


Dmaj7             Gmaj7
  me gustan tus labios de seda
Dmaj7              Gmaj7
  y en silencio, más
Dmaj7          Gmaj7
  eres una diosa eres bella
Dmaj7             Gmaj7
  hasta que empiezas a hablar


    F#m7                C#m7          F#m7            C#m7

G|------------------|-----------|------------------|------------|
B|----9-----9-----9-|11-12-11-9-|----9-----9------9|------------|
D|9-11--9-11--9-11--|-----------|9-11--9-11--9-11--|9-7-9-7-9-11|
A|------------------|-----------|------------------|------------|
E|------------------|-----------|------------------|------------|
no sé qué tienes que recriminar  creo que un sordo te amaría más


   F#m7           C#m7  C#dim  Bm7  Bdim
e|--------------|----------------------------|
G|--------------|--5------5-----3----3-------|
B|-----9------9-|--4------3-----2----1-------|
D|9-11---9-11---|--5------5-----3----3-------|
A|--------------|--4------4-----2----2-------|
E|--------------|----------------------------|
  y es que m es___tás ____ma___tan___do


Gmaj7         Amaj7
yo necesito paz
             B7sus4
ya no quiero hablar
        Asus4                    Gmaj7
no me importa lo que tengas que decir
               Amaj7
yo nunca fui feliz
            B7sus4
nunca quise oír
        Asus4                    Gmaj7
no me importa lo que tengas que decir


Gmaj7         Amaj7
yo necesito paz
             B7sus4
ya no quiero hablar
        Asus4                    Gmaj7
no me importa lo que tengas que decir
               Amaj7
yo nunca fui feliz
            B7sus4
nunca quise oír
        Asus4                  Gmaj7
no me importa lo que tengas que decir


  F#m7                C#m7         F#m7             C#m7
e|------------------|-----------|-----------------|------------|
G|----9-----9-------|-----------|----9-----9------|------------|
B|----9-----9-----9-|11-12-11-9-|----9-----9-----9|------------|
D|9-11--9-11--9-11--|-----------|9-11--9-11--9-11-|9-7-9-7-9-11|
A|------------------|-----------|-----------------|------------|
E|------------------|-----------|-----------------|------------|
dame un segundo para  respirar    nunca el silencio fue una necesidad


    F#m7        C#m7 C#dim  Bm7  Bdim
e|------------|-----------------------|
G|----9-----9-|--5-----5-----3-----3--|
B|----9-----9-|--4-----3-----2-----1--|
D|9-11--9-11--|--5-----5-----3-----3--|
A|------------|--4-----4-----2-----2--|
E|------------|-----------------------|
  y es que me es_tás __ma___tan___do


Gmaj7         Amaj7
yo necesito paz
             B7sus4
ya no quiero hablar
        Asus4                    Gmaj7
no me importa lo que tengas que decir
               Amaj7
yo nunca fui feliz
            B7sus4
nunca quise oír
        Asus4                    Gmaj7
no me importa lo que tengas que decir


Gmaj7        Amaj7
yo necesito paz
             B7sus4
ya no quiero hablar
        Asus4                    Gmaj7
no me importa lo que tengas que decir
               Amaj7
yo nunca fui feliz
            B7sus4     Asus4
nunca quise oír    yaaahaaa...........

Gmaj7     Amaj7

B7sus4                   Asus4
lo que tengas que decir, loque tengas que decir
Gmaj7                      Amaj7
lo que tengas que decir, loque tengas que decir
B7sus4            Asus4
ouhhh no no no no no yeheeey yeeehee........
Gmaj7     Amaj77          B7sus4
...............no me llames más

ESPERO QUE LES GUSTE ALGÚN COMENTARIO A:
carlosbobadilla@
Y SIGAN ESCUCHANDO BUEN ROCK LATINOAMERICANO
UN ABRAZO DESDE PERÚ
Suggest correction
Give kudos to tab author, rate the tab!
1 2 3 4 5
comments
print report bad tab
guest
You may want to rate the tab now too:
select rating
Wanna post a correction for this tab? Suggest correction