Oops, an error
Loading. Please wait.

Eclipse Tab

by Octavia
5 views 1 this week
no commentswrite comment
1 2 3 4 5
3 more votes to show rating
add to favorites
launch autoscroll
font size
0
reset
how to read this tab
guitar tuner
×
Best way to learn
"Eclipse"
Autoscroll
slow
fast
+/-
esc
set tempo
stop
TRANSCRITO POR: Omar Miranda
27/12/2002

ACORDES:

    B   Asus2   E    D5   Esus2
e---2-----0-----0---------2----
G---4-----0-----0----3----5----
B---4-----2-----1----2----4----
D---4-----2-----2----0----2----
A---2-----0-----2---------2----
E---------------0--------------


INTRO:

                                  B         Asus2       E
e|-----2-4-2-----2---4-2-------|-----2-4-2-----2---4-2------|
G|-----------------------------|----------------------------|
B|--4---------2----------------|--4---------2---------------|
D|------------------------2----|------------------------2---|
A|-----------------------------|----------------------------|
E|-----------------------------|----------------------------|
 |                             |                            |
 |                             |                            |
e|-----------------------------|--2---------0-----------0---|
G|-----------------------------|--4---------0-----------0---|
B|-----------------------------|--4---------2-----------1---|
D|-----------------------------|--4---------2-----------2---|
A|-----------------------------|--2---------0-----------2---|
E|-----------------------------|------------------------0---|


    B         Asus2       E       B         Asus2       E
e|-----2-4-2-----2---4-2-------|-----2-4-2-----2---4-2-------------|
G|-----------------------------|-----------------------------------|
B|--4---------2----------------|--4---------2-----------------2-2--|
D|------------------------2----|------------------------2----------|
A|-----------------------------|-----------------------------------|
E|-----------------------------|-----------------------------------|
 |                             |                                   |
 |                             |                                   |
e|--2---------0-----------0----|--2---------0-----------0----------|
G|--4---------0-----------0----|--4---------0-----------0----------|
B|--4---------2-----------1----|--4---------2-----------1----------|
D|--4---------2-----------2----|--4---------2-----------2----------|
A|--2---------0-----------2----|--2---------0-----------2----------|
E|------------------------0----|------------------------0----------|

VERSO:

    B         Asus2       E                    B         Asus2       E
e|-----2-4-2-----2---4-2--------------------|-----2-4-2-----2---4-2---------|
G|------------------------------------------|-------------------------------|
B|--4---------2-----------------------------|--4---------2------------------|
D|------------------------2-----------------|------------------------2------|
A|------------------------------------------|-------------------------------|
E|------------------------------------------|-------------------------------|
       Eclipse el sol       eclipse el tiempo que respiro


    B         Asus2       E                    B         Asus2       E
e|-----2-4-2-----2---4-2--------------------|-----2-4-2-----2---4-2---------|
G|------------------------------------------|-------------------------------|
B|--4---------2-----------------------------|--4---------2------------------|
D|------------------------2-----------------|------------------------2------|
A|------------------------------------------|-------------------------------|
E|------------------------------------------|-------------------------------|
       casualidad      o instinto                 el silencio hoy es mi eco

    D5        Asus2       Esus2              D5        Asus2       Esus2
e|-----0-2-0-----2---4-2------------------|-----0-2-0-----2---4-2-----------|
G|----------------------------5-----------|----------------------------5----|
B|------------2-------------4-------------|------------2-------------4------|
D|--0---------------------2---------------|--0---------------------2--------|
A|----------------------------------------|---------------------------------|
E|----------------------------------------|---------------------------------|
       es el rastro        en la arena         de mi sombra en soledad


B        Asus2      E 
 Ya no encuentro el agua
B         Asus2      E 
 me he perdido en el fuego
B      Asus2  E 
 ya no veo el aura
B        Asus2      E 
 ya no encuentro regreso

    B         Asus2       E                    B         Asus2       E
e|-----2-4-2-----2---4-2--------------------|-----2-4-2-----2---4-2---------|
G|------------------------------------------|-------------------------------|
B|--4---------2-----------------------------|--4---------2------------------|
D|------------------------2-----------------|------------------------2------|
A|------------------------------------------|-------------------------------|
E|------------------------------------------|-------------------------------|
      eclipse el mar         y sus espejos      eclipse hasta en las texturas


    B         Asus2       E                    B         Asus2       E
e|-----2-4-2-----2---4-2--------------------|-----2-4-2-----2---4-2---------|
G|------------------------------------------|-------------------------------|
B|--4---------2-----------------------------|--4---------2------------------|
D|------------------------2-----------------|------------------------2------|
A|------------------------------------------|-------------------------------|
E|------------------------------------------|-------------------------------|
       fragilidad,           desequilibrio        el desierto es real

    D5        Asus2       Esus2              D5        Asus2       Esus2
e|-----0-2-0-----2---4-2------------------|-----0-2-0-----2---4-2-----------|
G|----------------------------5-----------|----------------------------5----|
B|------------2-------------4-------------|------------2-------------4------|
D|--0---------------------2---------------|--0---------------------2--------|
A|----------------------------------------|---------------------------------|
E|----------------------------------------|---------------------------------|
     en mi sombra que hace tiempo               se enamoro de esta soledad

B        Asus2      E 
 Ya no encuentro el agua
B         Asus2      E 
 me he perdido en el fuego
B      Asus2  E 
 ya no veo el aura
B        Asus2      E 
 ya no encuentro regreso


D5               Esus2
  ya no hay agua,  solo fuego
D5               Esus2
  ya no hay aura   no regreso
D5            Esus2
  el silencio   es el eco
D5             Esus2
  es la sombra   en mi espejo

    B         Asus2       E 
e|---------10---7-10----7-10-7-10---7-10---7-10-7----|
G|--7-9-10------x--x----x--x-x--x---x--x---x--x-x----|
B|---------------------------------------------------|
D|---------------------------------------------------|
A|---------------------------------------------------|
E|---------------------------------------------------|

    B   Asus2       E                     D5    Asus2       E
e|-----7----------------7-------------x-|-10-10-10-7-7-7----------x---|
G|----7--10-8-8-7------7--10-8-8-7----x-|----------------10-7-10--x---|
B|---7------------7---7------------7----|-----------------------------|
D|--9----------------9------------------|-----------------------------|
A|--------------------------------------|-----------------------------|
E|--------------------------------------|-----------------------------|

                              D5    Asus2       E
e|--10-10-10-7-7-7----------|-10-10-12-10-7------10-12-10-7-------------|
G|-----------------10-7-10--|---------------10-7------------10-7--------|
B|--------------------------|------------------------------------9-7----|
D|--------------------------|----------------------------------------9--|
A|--------------------------|-------------------------------------------|
E|--------------------------|-------------------------------------------|

B        Asus2      E 
 Ya no encuentro el agua
B         Asus2      E 
 me he perdido en el fuego
B      Asus2  E 
 ya no veo el aura
B        Asus2      E 
 ya no encuentro regreso
B        Asus2  E 
 ya no encuntro fuego 
B         Asus2      E 
 me he perdido en el hielo

    B         Asus2       E               B         Asus2       E
e|-----2-4-2-----2---4-2---------------|-----2-4-2-----2---4-2---------|
G|-------------------------------------|-------------------------------|
B|--4---------2------------------------|--4---------2------------------|
D|------------------------2------------|------------------------2------|
A|-------------------------------------|-------------------------------|
E|-------------------------------------|-------------------------------|
      Ya no encuentro el  aura               me he perdido en el fuego

    D5        Asus2       Esus2         D5        Asus2       Esus2
e|-----0-2-0-----2---4-2-------------|-----0-2-0------------------2-----|
G|----------------------------5------|---------------------------5------|
B|------------2-------------4--------|------------2-------------4-------|
D|--0---------------------2----------|--0----------------------2--------|
A|-----------------------------------|------------------------2---------|
E|-----------------------------------|----------------------------------|
      ya no veo ,       ya no siento    me he perdido en el fuego


ESPERO QUE SEA DE TU AGRADO

CUALQUIR DUDA, CONCEJO O COMENTARIO 
POR FAVOR ESCRIBIR A: omarmc4@
Suggest correction
Give kudos to tab author, rate the tab!
1 2 3 4 5
comments
print report bad tab
guest
You may want to rate the tab now too:
select rating
Wanna post a correction for this tab? Suggest correction