Oops, an error
Loading. Please wait.

Lentamente Chords

version 2
version 2

Whole song

18 views 1 this week
no commentswrite comment
1 2 3 4 5
3 more votes to show rating
add to favorites
launch autoscroll
font size
0
reset
transpose
0
reset
simplify chords
display chords
guitar tuner
Autoscroll
slow
fast
+/-
esc
set tempo
stop
Help us to improve Ultimate-Guitar.com Take our survey!
×
Estos son los acordes para guitarra
electrica (acordes en 5ta).
Si lo quieren transformar a guitarra
acustica, hagan las notas normales,
"solo que en la parte del coro" es
Lam y Rem, despues las demas son mayores.

**Intro**

DISTORCION:: Sol5 - Re5 - Do5

**Verso 1**

Entra más el bajo q la guitarra
:: (palm mute - clean) Sol5 - Re5 - Do5

**Coro 1**

(DISTORCION)

G5                    D5              A5
     Y   si   me   escuchas   lentamente
C5              G5           F5
     Comprenderás que ya me fui
G5         D5               A5
     Y si descubres las distancias
C5         G5         F5
     Eternamente ven a mí

**Intro**

DISTORCION:: Sol5 - Re5 - Do5

**Verso 2**

:: (palm mute - clean) Sol5 - Re5 - Do5

**Coro 2**

(DISTORCION)

G5                    D5              A5
     Y   si   me   escuchas   lentamente
C5              G5           F5
     Comprenderás que ya me fui
G5         D5               A5
     Y si descubres las distancias
C5         G5         F5
     Eternamente ven a mí

**Coro 3**

(DISTORCION)

                                             A5
     Y   si   me   escuchas   lentamente
C5              G5           F5
     Comprenderás que ya me fui
G5         D5               A5
     Y si descubres las distancias
C5         G5         F5
     Eternamente ven a mí

**Coro 4**

(DISTORCION)

G5                    D5              A5
     Y   si   me   escuchas   lentamente
C5              G5           F5
     Comprenderás que ya me fui
G5         D5               A5
     Y si descubres las distancias
C5         G5         F5                G5
     Eternamente ven a mí


Este es el solo de Lentamente
espero que este bien y les guste

e -----------------------~11-~11--15-15-11-11--------------
b --~11----8-9p8h9---13-11-------------------13-13-11-11-9-
g -------10------------------------------------------------
d ---------------------------------------------------------
a ---------------------------------------------------------
e ---------------------------------------------------------

e --111111-101010-888------------------------------
b --------------------111111-99-11p9---------------
g -------------------------------------------------  x3
d -------------------------------------------------
a -------------------------------------------------
e -------------------------------------------------

e ---11--11--11--11-11/0---------------------------
b -----11--11--11---11/0---------------------------
g -------------------------------------------------
d -------------------------------------------------
a -------------------------------------------------
e -------------------------------------------------
Suggest correction
Give kudos to tab author, rate the tab!
1 2 3 4 5
comments
print report bad tab
guest
You may want to rate the tab now too:
select rating
Wanna post a correction for this tab? Suggest correction