Oops, an error
Loading. Please wait.

Madame Octavia Tab

11 views 6 this week
no commentswrite comment
1 2 3 4 5
3 more votes to show rating
add to favorites
launch autoscroll
font size
0
reset
how to read this tab
guitar tuner
×
Best way to learn
"Madame Octavia"
Autoscroll
slow
fast
+/-
esc
set tempo
stop
TRANSCRITO POR: Omar Miranda
18/8/2002

ACORDES:

    Badd11    F#m     Aadd11      E       D      Am    C     G
e----0---------2--------0---------0-------2------0-----0-----3---
G----0---------2--------0---------0-------3------1-----1-----0---
B----8---------2--------6---------1-------2------2-----0-----0---
D----9---------4--------7---------2-------0------2-----2-----0---
A----9---------4--------7---------2--------------0-----3-----2---
E----7---------2--------5---------0--------------0-----------3---

     A5       B5
e------------------------------------------
G------------------------------------------ 
B----2--------4----------------------------
D----2--------4----------------------------
A-------------2----------------------------
E------------------------------------------ 

INTRO:

    Badd11              F#m  
e|--0-7-7-7-7-0-7-7-7-7-|-0-7-7-7-7-0-7-7-7-7--|
G|--5-5-5-5-5-5-5-5-5-5-|-5-5-5-5-5-5-5-5-5-5--|
B|----------------------|----------------------|
D|----------------------|----------------------|
A|----------------------|----------------------|
E|----------------------|----------------------|

    Aadd11            E  
e|------------------|-------7-------7-------|
G|------5-------5---|-----5-------5---------|
B|--4-6---6-4-6---6-|-4-6-----4-6-----------|
D|------------------|-----------------------|
A|------------------|-----------------------|
E|------------------|-----------------------|


    Badd11              F#m  
e|--0-7-7-7-7-0-7-7-7-7-|-0-7-7-7-7-0-7-7-7-7--|
G|--5-5-5-5-5-5-5-5-5-5-|-5-5-5-5-5-5-5-5-5-5--|
B|----------------------|----------------------|
D|----------------------|----------------------|
A|----------------------|----------------------|
E|----------------------|----------------------|

    Aadd11            E  
e|------------------|-------7-------7-------|
G|------5-------5---|-----5-------5---------|
B|--4-6---6-4-6---6-|-4-6-----4-6-----------|
D|------------------|-----------------------|
A|------------------|-----------------------|
E|------------------|-----------------------|


Badd11       F#m
Ante el    espejo ya hace
Aadd11       E
rabia y    dolor
Badd11      F#m
porqué el reflejo no hace
Aadd11         E
el milagro de amor


    F#m           A5               B5                
e|--------------|----------------------------------------|
G|--------------|-3----------------5---------------------|
B|--4-2---4-2---|---2----------------2-------------------|
D|------4-----4-|-----4----------------4-----------------|
A|--------------|----------------------------------------|
E|--------------|----------------------------------------|
    ser           la delgada línea que se quiere poseer

    F#m           A5               B5                
e|--------------|----------------------------------------|
G|--------------|-3----------------2---------------------|
B|--4-2---4-2---|---2----------------2-------------------|
D|------4-----4-|-----4----------------4-----------------|
A|--------------|----------------------------------------|
E|--------------|----------------------------------------|
                  la jugosa fruta que al final tan solo...... 

    F#m           A5               B5                
e|--------------|----------------------------------------|
G|--------------|-3----------------5---------------------|
B|--4-2---4-2---|---2----------------2-------------------|
D|------4-----4-|-----4----------------4-----------------|
A|--------------|----------------------------------------|
E|--------------|----------------------------------------|
  ...ser          frágil como un pensamiento al viento

    F#m           A5               B5         A5       
e|--------------|----------------------------------------|
G|--------------|-3----------------5---------------------|
B|--4-2---------|---2----------------2--------4-2--------|
D|------4-------|-----4----------------4----------4------|
A|--------------|----------------------------------------|
E|--------------|----------------------------------------|
   que va        ahhh              va         ahhh
  
B5
ohhh y no puede.....

   Badd11                 F#m  
e|-12-12-12-12-12-12-12-|-12-12-12-12-12-12-12-11-----|
G|--0--0--0--0--0--0--0-|--0--0--0--0--0--0--0--0-14--|
B|----------------------|-----------------------------|
D|----------------------|-----------------------------|
A|----------------------|-----------------------------|
E|----------------------|-----------------------------|
  ....ser

    Aadd11                    E  
e|--------12----------12----|-------12-14-------12-14--|
G|--12-14----14-12-14----14-|-12-14-------12-14--------|
B|--------------------------|--------------------------|
D|--------------------------|--------------------------|
A|--------------------------|--------------------------|
E|--------------------------|--------------------------|
  
  Badd11                     F#m  
e|-12-11-11-11-12-12-12-14-|-12-11-11-11-12-12-12-14--|
G|--0--0--0--0--0--0--0--0-|--0--0--0--0--0--0--0--0--|
B|-------------------------|--------------------------|
D|-------------------------|--------------------------|
A|-------------------------|--------------------------|
E|-------------------------|--------------------------|

    Aadd11                    E  
e|--------12----------12----|-------12-14-------12-14--|
G|--12-14----14-12-14----14-|-12-14-------12-14--------|
B|--------------------------|--------------------------|
D|--------------------------|--------------------------|
A|--------------------------|--------------------------|
E|--------------------------|--------------------------|

  
Badd11       F#m
Quién habrá  sido el genio
Aadd11            E
que invento la ilusión
Badd11       F#m
¡Ha sido     cruel natural!
Aadd11         E
o grande en virtud? 


    F#m           A5               B5                
e|--------------|----------------------------------------|
G|--------------|-3----------------5---------------------|
B|--4-2---4-2---|---2----------------2-------------------|
D|------4-----4-|-----4----------------4-----------------|
A|--------------|----------------------------------------|
E|--------------|----------------------------------------|
    para que      sea larga la delgada línea que se quiere poseer

    F#m           A5               B5                
e|--------------|----------------------------------------|
G|--------------|-3----------------2---------------------|
B|--4-2---4-2---|---2----------------2-------------------|
D|------4-----4-|-----4----------------4-----------------|
A|--------------|----------------------------------------|
E|--------------|----------------------------------------|
                  la jugosa fruta que al final tan solo...... 

    F#m           A5               B5                
e|--------------|----------------------------------------|
G|--------------|-3----------------5---------------------|
B|--4-2---4-2---|---2----------------2-------------------|
D|------4-----4-|-----4----------------4-----------------|
A|--------------|----------------------------------------|
E|--------------|----------------------------------------|
  ...ser          frágil como un pensamiento al viento

    F#m           A5               B5         A5       
e|--------------|----------------------------------------|
G|--------------|-3----------------5---------------------|
B|--4-2---------|---2----------------2--------4-2--------|
D|------4-------|-----4----------------4----------4------|
A|--------------|----------------------------------------|
E|--------------|----------------------------------------|
   que va        ahhh              va         ahhh
  
B5
ohhh y no puede.....

   Badd11                 F#m  
e|-12-12-12-12-12-12-12-|-12-12-12-12-12-12-12-11-----|
G|--0--0--0--0--0--0--0-|--0--0--0--0--0--0--0--0-14--|
B|----------------------|-----------------------------|
D|----------------------|-----------------------------|
A|----------------------|-----------------------------|
E|----------------------|-----------------------------|
  ....ser

    Aadd11                    E  
e|--------12----------12----|-------12-14-------12-14--|
G|--12-14----14-12-14----14-|-12-14-------12-14--------|
B|--------------------------|--------------------------|
D|--------------------------|--------------------------|
A|--------------------------|--------------------------|
E|--------------------------|--------------------------|
  
  Badd11                     F#m  
e|-12-11-11-11-12-12-12-14-|-12-11-11-11-12-12-12-14--|
G|--0--0--0--0--0--0--0--0-|--0--0--0--0--0--0--0--0--|
B|-------------------------|--------------------------|
D|-------------------------|--------------------------|
A|-------------------------|--------------------------|
E|-------------------------|--------------------------|

    Aadd11                    E  
e|--------12----------12----|-------12-14-------12-14--|
G|--12-14----14-12-14----14-|-12-14-------12-14--------|
B|--------------------------|--------------------------|
D|--------------------------|--------------------------|
A|--------------------------|--------------------------|
E|--------------------------|--------------------------|


    Badd11                F#m   
e|--0-7-7-7-7-0-7-7-7-7-|-0-7-7-7-7-0-7-7-7-7--|
G|--5-5-5-5-5-5-5-5-5-5-|-5-5-5-5-5-5-5-5-5-5--|
B|----------------------|----------------------|
D|----------------------|----------------------|
A|----------------------|----------------------|
E|----------------------|----------------------|
    Si el sol.............se va has tu propia luz

    Aadd11            E  
e|------------------|-------7-------7-------|
G|------5-------5---|-----5-------5---------|
B|--4-6---6-4-6---6-|-4-6-----4-6-----------|
D|------------------|-----------------------|
A|------------------|-----------------------|
E|------------------|-----------------------|
    has tu propia.....luz
  
    Badd11                F#m   
e|--0-7-7-7-7-0-7-7-7-7-|-0-7-7-7-7-0-7-7-7-7--|
G|--5-5-5-5-5-5-5-5-5-5-|-5-5-5-5-5-5-5-5-5-5--|
B|----------------------|----------------------|
D|----------------------|----------------------|
A|----------------------|----------------------|
E|----------------------|----------------------|
    Si el sol.............se va has tu propia luz

    Aadd11            E  
e|------------------|-------7-------7-------|
G|------5-------5---|-----5-------5---------|
B|--4-6---6-4-6---6-|-4-6-----4-6-----------|
D|------------------|-----------------------|
A|------------------|-----------------------|
E|------------------|-----------------------|
    has tu propia.....luz


F#m       Aadd11 Badd11
SI el SOL se     va 
F#m           Aadd11 Badd11
has tu propia luz  
F#m       Aadd11 Badd11
SI el SOL se     va 
F#m           Aadd11 Badd11
has tu propia luz  
Badd11
yeeohh yeeohh


'segundita'


    D                             Am   
e|--X-10-10-10-10-X-10-10-10-10-|-X-10-10-10-10-X-10-10-10-10-|
G|--8--8--8--8--8-8--8--8--8--8-|-8--8--8--8--8-8--8--8--8--8-|
B|------------------------------|-----------------------------|
D|------------------------------|-----------------------------|
A|------------------------------|-----------------------------|
E|------------------------------|-----------------------------|

    C                 G    
e|------------------|------10------10-------|
G|------8-------8---|-----8-------8---------|
B|--7-9---9-7-9---9-|-7-9-----7-9-----------|
D|------------------|-----------------------|
A|------------------|-----------------------|
E|------------------|-----------------------|

    D                             Am   
e|--X-10-10-10-10-X-10-10-10-10-|-X-10-10-10-10-X-10-10-10-10-|
G|--8--8--8--8--8-8--8--8--8--8-|-8--8--8--8--8-8--8--8--8--8-|
B|------------------------------|-----------------------------|
D|------------------------------|-----------------------------|
A|------------------------------|-----------------------------|
E|------------------------------|-----------------------------|

    C                 G    
e|------------------|------10------10-------|
G|------8-------8---|-----8-------8---------|
B|--7-9---9-7-9---9-|-7-9-----7-9-----------|
D|------------------|-----------------------|
A|------------------|-----------------------|
E|------------------|-----------------------|

   D                      Am
e|-15-15-15-15-15-15-15-|-15-15-15-15-15-15-15-14-----|
G|--0--0--0--0--0--0--0-|--0--0--0--0--0--0--0--0-17--|
B|----------------------|-----------------------------|
D|----------------------|-----------------------------|
A|----------------------|-----------------------------|
E|----------------------|-----------------------------|
    Has.................. tu propia luz 

    C                         G 
e|--------15----------15----|-------15-17-------15-17--|
G|--15-17----17-15-17----17-|-15-17-------15-17--------|
B|--------------------------|--------------------------|
D|--------------------------|--------------------------|
A|--------------------------|--------------------------|
E|--------------------------|--------------------------|
    Has...................... tu propia luz  

   D                      Am
e|-15-15-15-15-15-15-15-|-15-15-15-15-15-15-15-14-----|
G|--0--0--0--0--0--0--0-|--0--0--0--0--0--0--0--0-17--|
B|----------------------|-----------------------------|
D|----------------------|-----------------------------|
A|----------------------|-----------------------------|
E|----------------------|-----------------------------|
    Has.................. tu propia luz 

    C                         G 
e|--------15----------15----|-------15-17-------15-17--|
G|--15-17----17-15-17----17-|-15-17-------15-17--------|
B|--------------------------|--------------------------|
D|--------------------------|--------------------------|
A|--------------------------|--------------------------|
E|--------------------------|--------------------------|
    Has...................... tu propia luz  

   D                      Am
e|-15-15-15-15-15-15-15-|-15-15-15-15-15-15-15-14-----|
G|--0--0--0--0--0--0--0-|--0--0--0--0--0--0--0--0-17--|
B|----------------------|-----------------------------|
D|----------------------|-----------------------------|
A|----------------------|-----------------------------|
E|----------------------|-----------------------------|
    Has.................. tu propia luz 

    C                         G 
e|--------15----------15----|-------15-17-------15-17--|
G|--15-17----17-15-17----17-|-15-17-------15-17--------|
B|--------------------------|--------------------------|
D|--------------------------|--------------------------|
A|--------------------------|--------------------------|
E|--------------------------|--------------------------|
    Has...................... tu propia luz  

   D                      Am
e|-15-15-15-15-15-15-15-|-15-15-15-15-15-15-15-14-----|
G|--0--0--0--0--0--0--0-|--0--0--0--0--0--0--0--0-17--|
B|----------------------|-----------------------------|
D|----------------------|-----------------------------|
A|----------------------|-----------------------------|
E|----------------------|-----------------------------|
   ohhhhh..................hhhhhhh 

    C                         G 
e|--------15----------15----|-------15-17-------15-17--|
G|--15-17----17-15-17----17-|-15-17-------15-17--------|
B|--------------------------|--------------------------|
D|--------------------------|--------------------------|
A|--------------------------|--------------------------|
E|--------------------------|--------------------------|
    ohhhhh....................hhhhhh


e------2--2-----2^3^2--------0-------------------0---------------------3-------
G-----3----3-----------------1-----------------1---1-----------------0---0-----
B----2---------------------2-----------------0-------0-------------0-------0---
D---0--------------------2-----------------2-----------2---------0-------------
A----------------------0-----------------3---------------------2---------------
E------------------------------------------------------------3-----------------
                     Has tu propia luz                      Has tu propia luz

e------2--2-----2^3^2-------------0-------------------0---------------------3-----------2--
G-----3----3----------3-----------1-----------------1---1-----------------0---0--------3---
B----2------------------2-------2-----------------0-------0-------------0-------0-----2----
D---0-------------------------2-----------------2-----------2---------0--------------0-----
A---------------------------0-----------------3---------------------2----------------------
E-----------------------------------------------------------------3------------------------
                          Has tu propia luz                     Has tu propia luz


ESPERO QUE SEA DE TU AGRADO

CUALQUIR DUDA, CONSEJO O COMENTARIO 
POR FAVOR ESCRIBIR A: omarmc4@
Suggest correction
Give kudos to tab author, rate the tab!
1 2 3 4 5
comments
print report bad tab
guest
You may want to rate the tab now too:
select rating
Wanna post a correction for this tab? Suggest correction