Oops, an error
Loading. Please wait.

Madame Octavia Chords

version 2
version 2

Whole song

9 views 1 this week
no commentswrite comment
1 2 3 4 5
3 more votes to show rating
add to favorites
launch autoscroll
font size
0
reset
transpose
0
reset
simplify chords
display chords
guitar tuner
×
Best way to learn
"Madame Octavia"
Autoscroll
slow
fast
+/-
esc
set tempo
stop
MADAME OCTAVIA
OCTAVIA
LP AURA

TRANSCRITO POR: Omar Miranda
23/2/2002

ACORDES:

    Badd11    F#m     Aadd11      E       D      Am    C     G
e----0---------2--------0---------0-------2------0-----0-----3---
G----0---------2--------0---------0-------3------1-----1-----0---
B----8---------2--------6---------1-------2------2-----0-----0---
D----9---------4--------7---------2-------0------2-----2-----0---
A----9---------4--------7---------2--------------0-----3-----2---
E----7---------2--------5---------0--------------0-----------3---

     A5       B5
e------------------------------------------
G------------------------------------------ 
B----2--------4----------------------------
D----2--------4----------------------------
A-------------2----------------------------
E------------------------------------------ 

INTRO:

Badd11 F#m  \
Aadd11 E    |>*2
            /


Badd11       F#m
Ante el    espejo ya hace
Aadd11       E
rabia y    dolor
Badd11      F#m
porqué el reflejo no hace
Aadd11         E
el milagro de amor


F#m
ser 
A5               B5                F#m
la delgada línea que se quiere poseer
A5              B5                    F#m 
la jugosa fruta que al final tan solo ser
A5                  B5
frágil como un pensamiento al viento
    F#m  A5
que va ahhh
B5   A5  B5
va ahhh  ohhh
B5
y no puede 
Badd11
ser

  F#m     Aadd11      E
Badd11    F#m     Aadd11    E 

Badd11       F#m
Quién habrá  sido el genio
Aadd11            E
que invento la ilusión
Badd11       F#m
¡Ha sido     cruel natural!
Aadd11         E
o grande en virtud? 

F#m
para que
A5                 B5               F#m
sea larga la línea que se quiere poseer
A5              B5                    F#m 
la jugosa fruta que al final tan solo ser
A5                  B5
frágil como un pensamiento al viento
    F#m  A5
que va ahhh
B5   A5  B5
va ahhh  ohhh
B5
y no puede 
Badd11
ser

  F#m     Aadd11      E
Badd11    F#m     Aadd11    E 


Badd11    F#m   Aadd11        E 
Si el sol se va has tu propia luz  
Badd11    F#m   Aadd11        E 
Si el sol se va has tu propia luz  
F#m       Aadd11 Badd11
B el G se     va 
F#m           Aadd11 Badd11
has tu propia luz  
F#m       Aadd11 Badd11
B el G se     va 
F#m           Aadd11 Badd11
has tu propia luz  
Badd11
yeeohh yeeohh

'segundita'

D  Am   C   G
D  Am   C   G

D   Am
Has tu propia luz 
C   G
Has tu propia luz  
D   Am
Has tu propia luz 
C   G
Has tu propia luz  
D   Am
Has tu propia luz 
C   G
Has tu propia luz  
D   Am
ohhhhhhhhhhhh 
C   G
ohhhhhhhhhhh


e------2--2-----2^3^2--------0-------------------0---------------------3-------
G-----3----3-----------------1-----------------1---1-----------------0---0-----
B----2---------------------2-----------------0-------0-------------0-------0---
D---0--------------------2-----------------2-----------2---------0-------------
A----------------------0-----------------3---------------------2---------------
E------------------------------------------------------------3-----------------
                     Has tu propia luz                      Has tu propia luz

e------2--2-----2^3^2-------------0-------------------0---------------------3-----------2--
G-----3----3----------3-----------1-----------------1---1-----------------0---0--------3---
B----2------------------2-------2-----------------0-------0-------------0-------0-----2----
D---0-------------------------2-----------------2-----------2---------0--------------0-----
A---------------------------0-----------------3---------------------2----------------------
E-----------------------------------------------------------------3------------------------
                          Has tu propia luz                     Has tu propia luz


ESPERO QUE SEA DE TU AGRADO

CUALQUIR DUDA, CONSEJO O COMENTARIO 
POR FAVOR ESCRIBIR A: omarmc4@
Suggest correction
Give kudos to tab author, rate the tab!
1 2 3 4 5
comments
print report bad tab
guest
You may want to rate the tab now too:
select rating
Wanna post a correction for this tab? Suggest correction