Oops, an error
Loading. Please wait.

Mis Angeles Tab

12 views 1 this week
no commentswrite comment
1 2 3 4 5
3 more votes to show rating
add to favorites
launch autoscroll
font size
0
reset
how to read this tab
guitar tuner
Autoscroll
slow
fast
+/-
esc
set tempo
stop
Help us to improve Ultimate-Guitar.com Take our survey!
×
TRANSCRITO POR: Omar Miranda
16/07/2003

ACORDES:

   Am   G   D   F   C    Bb
e|--5---3---5---1---8----6---|
G|--5---3---7---1---8----6---|
B|--5---4---7---2---9----7---|
D|--7---5---7---3---10---8---|
A|--7---5---5---3---10---8---|
E|--5---3-------1---8----6---|

INTRO:
    Am                      G                       D                       F
e|-----------------------|-----------------------|-----------------------|-----------------------|
G|-----------------------|-----------------------|-----------------------|-----------------------|
B|-----------------------|-----------------------|-----------------------|-----------------------|
D|-----------------------|-----------------------|-----------------------|-----------------------|
A|------3-3-3-3-3-3-2-3--|------3-3-3-3-3-3-2-3--|------3-3-3-3-3-3-2-3--|------3-3-3-3-3-3-5-3--|
E|--3-5------------------|--3-5------------------|--3-5------------------|--3-5------------------|

    Am                      G                       D                       F
e|-----------------------|-----------------------|-----------------------|-----------------------|
G|-----------------------|-----------------------|-----------------------|-----------------------|
B|-----------------------|-----------------------|-----------------------|-----------------------|
D|-----------------------|-----------------------|-----------------------|-----------------------|
A|------3-3-3-3-3-3-2-3--|------3-3-3-3-3-3-2-3--|------3-3-3-3-3-3-2-3--|------3-3-3-3-3-3-5-3--|
E|--3-5------------------|--3-5------------------|--3-5------------------|--3-5------------------|


    Am             G                      D               F
e|--5----5-----|---3--------3----------|--5-----5------|--1--------------1----|
G|--5----5-----|---3--------3----------|--7-----7------|--1--------------1----|
B|--5----5-----|---4--------4----------|--7-----7------|--2--------------2----|
D|--7----7-----|---5--------5----------|--7-----7------|--3--------------3----|
A|--7----7-----|---5--------5----------|--5-----5------|--3--------------3----|
E|--5----5-----|---3--------3----------|---------------|--1--------------1----|
     ana sabe a  metal ella es como una  viuda negra espe_rando por su presa


    Am              G                      D                           F
e|--5------5-----|--3--------3----------|--5-----------5------------|--1--------------1------|
G|--5------5-----|--3--------3----------|--7-----------7------------|--1--------------1------|
B|--5------5-----|--4--------4----------|--7-----------7------------|--2--------------2------|
D|--7------7-----|--5--------5----------|--7-----------7------------|--3--------------3------|
A|--7------7-----|--5--------5----------|--5-----------5------------|--3--------------3------|
E|--5------5-----|--3--------3----------|---------------------------|--1--------------1------|
    aquí estoy resignado a caer en esa     trampa letal que ha te______jido entre sus piernas

    Am                      G                       D                       F
e|-----------------------|-----------------------|-----------------------|-----------------------|
G|-----------------------|-----------------------|-----------------------|-----------------------|
B|-----------------------|-----------------------|-----------------------|-----------------------|
D|-----------------------|-----------------------|-----------------------|-----------------------|
A|------3-3-3-3-3-3-2-3--|------3-3-3-3-3-3-2-3--|------3-3-3-3-3-3-2-3--|------3-3-3-3-3-3-5-3--|
E|--3-5------------------|--3-5------------------|--3-5------------------|--3-5------------------|

    Am             G                      D                       F
e|--5----5-----|---3--------3----------|--5-----5------|----------1---------1-------|
G|--5----5-----|---3--------3----------|--7-----7------|----------1---------1-------|
B|--5----5-----|---4--------4----------|--7-----7------|----------2---------2-------|
D|--7----7-----|---5--------5----------|--7-----7------|----------3---------3-------|
A|--7----7-----|---5--------5----------|--5-----5------|----------3---------3-------|
E|--5----5-----|---3--------3----------|---------------|----------1---------1-------|
    eva viene del mar ella viene de ma____dera oriental es una escultura hecha mujer


    Am                G                           D                         F
e|--5-------5-----|---3---------3----------|------5-----------5------|------1--------------1----|
G|--5-------5-----|---3---------3----------|------7-----------7------|------1--------------1----|
B|--5-------5-----|---4---------4----------|------7-----------7------|------2--------------2----|
D|--7-------7-----|---5---------5----------|------7-----------7------|------3--------------3----|
A|--7-------7-----|---5---------5----------|------5-----------5------|------3--------------3----|
E|--5-------5-----|---3---------3----------|-------------------------|------1--------------1----|
    aquí estoy ya dispuesto a tallar que en ese tronco de miel voy a saciar toda mi sed

    Am                  G                   C                   Bb
e|----7-----7---7----|----7-----7---7----|----7-----7---7----|----5-----5---5----|
G|---5--5-5---5---5--|---5--5-5---5---5--|---5--5-5---5---5--|---3--3-3---3---3--|
B|--5----------------|--5----------------|--5----------------|--3----------------|
D|-------------------|-------------------|-------------------|-------------------|
A|-------------------|-------------------|-------------------|-------------------|
E|-------------------|-------------------|-------------------|-------------------|
   aquí estoy           entre las dos       aquí              estoy y así soy


                          \
Am                        |
para qué elegir           |> *4
Am                        |
si a mí me gustan las dos |
                          /


    Am                      G                       D                       F
e|-----------------------|-----------------------|-----------------------|-----------------------|
G|-----------------------|-----------------------|-----------------------|-----------------------|
B|-----------------------|-----------------------|-----------------------|-----------------------|
D|-----------------------|-----------------------|-----------------------|-----------------------|
A|------3-3-3-3-3-3-2-3--|------3-3-3-3-3-3-2-3--|------3-3-3-3-3-3-2-3--|------3-3-3-3-3-3-5-3--|
E|--3-5------------------|--3-5------------------|--3-5------------------|--3-5------------------|

    Am                      G                       D                       F
e|-----------------------|-----------------------|-----------------------|-----------------------|
G|-----------------------|-----------------------|-----------------------|-----------------------|
B|-----------------------|-----------------------|-----------------------|-----------------------|
D|-----------------------|-----------------------|-----------------------|-----------------------|
A|------3-3-3-3-3-3-2-3--|------3-3-3-3-3-3-2-3--|------3-3-3-3-3-3-2-3--|------3-3-3-3-3-3-5-3--|
E|--3-5------------------|--3-5------------------|--3-5------------------|--3-5------------------|


    Am             G                      D               F
e|--5----5-----|---3--------3----------|--5-----5------|--1--------------1----|
G|--5----5-----|---3--------3----------|--7-----7------|--1--------------1----|
B|--5----5-----|---4--------4----------|--7-----7------|--2--------------2----|
D|--7----7-----|---5--------5----------|--7-----7------|--3--------------3----|
A|--7----7-----|---5--------5----------|--5-----5------|--3--------------3----|
E|--5----5-----|---3--------3----------|---------------|--1--------------1----|
    clara tiene la luz ella es un ángel que bajó a acurrucarme entre sus alas

    Am             G                      D               F
e|--5----5-----|---3--------3----------|--5-----5------|--1--------------1----|
G|--5----5-----|---3--------3----------|--7-----7------|--1--------------1----|
B|--5----5-----|---4--------4----------|--7-----7------|--2--------------2----|
D|--7----7-----|---5--------5----------|--7-----7------|--3--------------3----|
A|--7----7-----|---5--------5----------|--5-----5------|--3--------------3----|
E|--5----5-----|---3--------3----------|---------------|--1--------------1----|
    aquí estoy entregado al placer de tener en la tierra lo más bello que hay en el cielo

    Am                  G                   D                   F
e|----7-----7---7----|----7-----7---7----|----7-----7---7----|----5-----5---5----|
G|---5--5-5---5---5--|---5--5-5---5---5--|---5--5-5---5---5--|---3--3-3---3---3--|
B|--5----------------|--5----------------|--5----------------|--3----------------|
D|-------------------|-------------------|-------------------|-------------------|
A|-------------------|-------------------|-------------------|-------------------|
E|-------------------|-------------------|-------------------|-------------------|
   aquí estoy           entre las dos       aquí                 estoy 

    Am                  G                   C                   Bb
e|----7-----7---7----|----7-----7---7----|----7-----7---7----|----5-----5---5----|
G|---5--5-5---5---5--|---5--5-5---5---5--|---5--5-5---5---5--|---3--3-3---3---3--|
B|--5----------------|--5----------------|--5----------------|--3----------------|
D|-------------------|-------------------|-------------------|-------------------|
A|-------------------|-------------------|-------------------|-------------------|
E|-------------------|-------------------|-------------------|-------------------|
   aquí estoy           entre las tres      aquí                 estoy , así soy

                            \
Am                          |
para qué elegir             |> *3
Am                          |
si a mí me gustan las tres. |
                            /
    Am                  G                         C                   Bb
e|----7-----7---7----|----7-----7---7-----------|----7-----7---7----|----5-----5---5----|
G|---5--5-5---5---5--|---5--5-5---5---5---------|---5--5-5---5---5--|---3--3-3---3---3--|
B|--5----------------|--5-----------------------|--5----------------|--3----------------|
D|-------------------|--------------------------|-------------------|-------------------|
A|-------------------|--------------------------|-------------------|-------------------|
E|-------------------|--------------------------|-------------------|-------------------|
    para qué elegir     si a mí me gustan las tres.

    Am                  G                   C                   Bb
e|----7-----7---7----|----7-----7---7----|----7-----7---7----|----5-----5---5----|
G|---5--5-5---5---5--|---5--5-5---5---5--|---5--5-5---5---5--|---3--3-3---3---3--|
B|--5----------------|--5----------------|--5----------------|--3----------------|
D|-------------------|-------------------|-------------------|-------------------|
A|-------------------|-------------------|-------------------|-------------------|
E|-------------------|-------------------|-------------------|-------------------|


    Am                  G                   C                   Bb
e|----7-----7---7----|----7-----7---7----|----7-----7---7----|----5-----5---5----|
G|---5--5-5---5---5--|---5--5-5---5---5--|---5--5-5---5---5--|---3--3-3---3---3--|
B|--5----------------|--5----------------|--5----------------|--3----------------|
D|-------------------|-------------------|-------------------|-------------------|
A|-------------------|-------------------|-------------------|-------------------|
E|-------------------|-------------------|-------------------|-------------------|
   aquí estoy           entre las tres      aquí                 estoy , así soy

    Am                  G                         C                   Bb
e|----7-----7---7----|----7-----7---7-----------|----7-----7---7----|----5-----5---5------------|
G|---5--5-5---5---5--|---5--5-5---5---5---------|---5--5-5---5---5--|---3--3-3---3---3----------|
B|--5----------------|--5-----------------------|--5----------------|--3------------------------|
D|-------------------|--------------------------|-------------------|---------------------------|
A|-------------------|--------------------------|-------------------|---------------------------|
E|-------------------|--------------------------|-------------------|---------------------------|
    para qué elegir     si a mí me gustan las dos  para qué elegir     si a mí me gustan las tres


    Am                  G                         C                   Bb
e|----7-----7---7----|----7-----7---7-----------|----7-----7---7----|----5-----5---5------------|
G|---5--5-5---5---5--|---5--5-5---5---5---------|---5--5-5---5---5--|---3--3-3---3---3----------|
B|--5----------------|--5-----------------------|--5----------------|--3------------------------|
D|-------------------|--------------------------|-------------------|---------------------------|
A|-------------------|--------------------------|-------------------|---------------------------|
E|-------------------|--------------------------|-------------------|---------------------------|
    para qué elegir     si a mí me gustan las dos  para qué elegir     si a mí me gustan las tres

Am       Bb 
para qué              
Am       Bb 
para qué                                 
Am       Bb 
para qué  
Am       Bb 
para qué        
Am       
para qué        

      
ESPERO QUE SEA DE TU AGRADO

CUALQUIR DUDA, CONCEJO O COMENTARIO 
POR FAVOR ESCRIBIR A: omarmc4@
Suggest correction
Give kudos to tab author, rate the tab!
1 2 3 4 5
comments
print report bad tab
guest
You may want to rate the tab now too:
select rating
Wanna post a correction for this tab? Suggest correction