Oops, an error
Loading. Please wait.

No Le Digas Tab

38 views 9 this week
no commentswrite comment
1 2 3 4 5
3 more votes to show rating
add to favorites
launch autoscroll
font size
0
reset
how to read this tab
guitar tuner
×
Best way to learn
"No Le Digas"
Autoscroll
slow
fast
+/-
esc
set tempo
stop
NO LE DIGAS
OCTAVIA
LP ACUSTICO

TRANSCRITO POR: Omar Miranda
27/4/2002

ACORDES:
   Em      B7     Am      D7      G       C
e--0-------2------0-------2-------3-------0
G--0-------0------1-------1-------0-------1
B--0-------2------2-------2-------0-------0
D--2-------1------2-------0-------0-------2
A--2-------2------0-------0-------2-------3
E--0-------0------0-------0-------3-------0


LA CANCION ESTA EN RITMO DE CUECA EN TONO DE MI MENOR
PARA QUE LA CANCION TE SALGA BIEN TE ACONSEJO QUE LO HAGAS TOCANDO 
CON ARPEGIOS ESTO YA DEPENDERA DE TU PROPIA HABILIDAD

INTRO:

e---5--7--8---------5---3--5--|---7--0---2--3-----2--3--5-----|------2----0--0---
G-------------7--8------------|----------------------------4--|---5-------0--0---
B-----------------------------|-------------------------------|-----------0--0---
D-------------0---------------|-------------------------------|-----------2--2---
A---0-------------------------|------3---------------------2--|-----------2--2---
E-----------------------3-----|-------------------2-----------|-----------0--0---

e---5--7--8---------5---3--5--|---7--0---2--3-----2--3--5-----|------2-------
G-------------7--8------------|----------------------------4--|---5----------
B-----------------------------|-------------------------------|--------------
D-------------0---------------|-------------------------------|--------------
A---0-------------------------|------3---------------------2--|--------------
E-----------------------3-----|-------------------2-----------|--------------

Em Em B7
Em Em B7 Em


Em                      B7
Si te encuentras con la Ninfa
                        Em
no le digas que he llorado
Am          D7       G         \
dile que en los rios me viste  |
C       B7          Em         |> *2
lavando oro para su cofre      |
                               /


Em                      B7
Si te encuentras con la Trini
                        Em 
no le digas que he sufrido
Am          D7         G          \
dile que en los campos me viste   |
C        B7              Em       |> *2
buscando lirios para sus trenzas  |
                                  /


      D7          G
Si te pregunta la Flora 
    D7         G
acordandose de mi


Am      D7             G
no le digas que me has visto 
   C        B7         Em
no le digas que la quiero
Am       D7         G
en un rincon del olvido 
   C     B7            Em
no le digas que la espero 


Em  B7  Em 
ay laralaralayla..........
Am  D7   G
laralay..........
C   B7   Em
laylaralay................
Am       D7         G
en un rincon del olvido 
   C     B7            Em
no le digas que la espero 


ESPERO QUE SEA DE TU AGRADO

CUALQUIR DUDA, CONSEJO O COMENTARIO 
POR FAVOR ESCRIBIR A: omarmc4@
Suggest correction
Give kudos to tab author, rate the tab!
1 2 3 4 5
comments
print report bad tab
guest
You may want to rate the tab now too:
select rating
Wanna post a correction for this tab? Suggest correction