Oops, an error
Loading. Please wait.

No Puedo Quitar Mis Ojos De Ti Tab

by Octavia
46 views 3 this week
no commentswrite comment
1 2 3 4 5
3 more votes to show rating
add to favorites
launch autoscroll
font size
0
reset
how to read this tab
guitar tuner
×
Best way to learn
"No Puedo Quitar Mis Ojos De Ti"
Autoscroll
slow
fast
+/-
esc
set tempo
stop
TRANSCRITO POR: Omar Miranda
19/08/2005

    E5 E7  Bm/E Aadd9 Amadd9  E/D#  B7sus4/C#   E   A   E7 F#m   B
e|----------------0-----0------0-------0--------0---0---0---2----2--|
B|------0----7----0-----0------0-------0--------0---2---3---2----4--|
G|--9---8----7----6-----5------4-------2--------1---2---1---2----4--|
D|--9---9----9----7-----7------6-------4--------2---2---2---4----4--|
A|--7---7----7----7-----7------6-------4--------2---0---2---4----2--|
E|----------------5-----------------------------0-------0---2-------|

INTRO:

    E5           E7            Bm/E          Aadd9
e|-------------|------------|--------7----|-------0---|
B|-------------|--0---------|--7----------|------0----|
G|--9-----9----|--8--8-9-8--|--7---7---7--|-----6-----|
D|--9---9---9--|--9---------|--9----------|----7------|
A|--7----------|--7---------|--7----------|---7-------|
E|-------------|------------|-------------|--5--------|


    E5           E7            Bm/E           Aadd9
e|-------------|------------|------7-------|-------0---|
B|-------------|--0---------|--7-----7-----|------0----|
G|--9-----9----|--8--8-9-8--|--7---------6-|-----6-----|
D|--9---9---9--|--9---------|--9-----------|----7------|
A|--7----------|--7---------|--7-----------|---7-------|
E|-------------|------------|--------------|--5--------|


VERSO:

            E5
No puedo creer que es verdad
          E7 
Que tanta felicidad
        Bm/E
Haya llegado hasta mí
        Aadd9
Y simplemente aprendí
             Amadd9
Que el cielo siento al pensar
         E/D#
Pensando que voy a amar
        B7sus4/C#
Por eso no puedo así
E
Quitar mis ojos de ti

            E5
Tú tienes que perdonar
       E7 
Mi insolencia al mirar
        Bm/E
Toda mi culpa no es
        Aadd9
Me enamorado esta vez
        Amadd9
Difícil es resistir
          E/D#
Sin ti no quiero vivir
        B7sus4/C#
Por eso no puedo así
E
Quitar mis ojos de ti

A
Ta raum ta raum Ta rara taum ta ta
E
Ta raum ta raum Ta rara taum ta ta
A
Ta raum ta raum Ta rara taum ta ta
E                E7
Ta raum ta raum

E7        F#m
Te quiero mucho
           B
Mi bien compréndelo
          E
Te quiero mucho
           A
Con toda intensidad
       F#m
Te necesito
B            E    E7
Dígote la verdad


E7        F#m
Te quiero mucho
       B
Y pido sin cesar
          E
Que no me dejes
          A
Ya que te encontré
           F#m B
Pues voy a amarte
               A   B
Siempre quiero amarte


ESPERO QUE SEA DE TU AGRADO

CUALQUIER DUDA, CONCEJO O COMENTARIO
POR FAVOR ESCRIBIR
A MI NUEVO CORREO: omctabs@
Suggest correction
Give kudos to tab author, rate the tab!
1 2 3 4 5
comments
print report bad tab
guest
You may want to rate the tab now too:
select rating
Wanna post a correction for this tab? Suggest correction