Oops, an error
Loading. Please wait.

No Quiero Tab

by Octavia
15 views 1 this week
no commentswrite comment
1 2 3 4 5
3 more votes to show rating
add to favorites
launch autoscroll
font size
0
reset
how to read this tab
guitar tuner
×
Best way to learn
"No Quiero"
Autoscroll
slow
fast
+/-
esc
set tempo
stop
NO QUIERO
OCTAVIA
LP AURA

TRANSCRITO POR: Omar Miranda
23/2/2002


ACORDES:
 
    Em       Asus2       G        G/A      Dsus2   F#7add11   G6  Aadd9
e----0---------0---------0---------0--------0--------0---------0----0----
G----0---------0---------0---------0--------3--------0---------0----0---- 
B----0---------2---------0---------0--------2--------3---------4----6----
D----2---------2---------0---------0--------0--------4---------5----7----
A----2---------0---------2---------0-----------------4---------5----7----
E----0---------0---------3---------0-----------------2---------3----5----

     G         A         C5       D5
e----3---------5-----------------------------------------------
G----3---------5----------------------------------------------- 
B----4---------6---------5--------7----------------------------
D----5---------7---------5--------7----------------------------
A----5---------7---------3--------5----------------------------
E----3---------5-----------------------------------------------


INTRO:
                       \
Em Em Asus2 G Asus2 G/A |
Em Em Asus2 Dsus2 Asus2 |>*4
                       /


VERSO:

     Em        F#7add11    G6       Aadd9
e------------------------------------------0-----|
G------------------------------------------0-----| 
B--------0---------3--------4-----------------6--|
D------2---------4--------5--------------7-------|
A----2---------4--------5--------------7---------|
E--0---------2--------3--------------5-----------|
   Al respi__rar      comienzo a sentir


     Em          F#7add11      G6            Aadd9
e--------------------------------------------------0-----|
G--------------------------------------------------0-----|
B--------0-------------3------------4-----------------6--|
D------2-------------4------------5--------------7-------|
A----2-------------4------------5--------------7---------|
E--0-------------2------------3--------------5-----------|
  comienzo a escapar de este cuerpo en_______fermo


     Em      F#7add11    G6          Aadd9
e------------------------------------------0-----|
G------------------------------------------0-----| 
B--------0---------3--------4-----------------6--|
D------2---------4--------5--------------7-------|
A----2---------4--------5--------------7---------|
E--0---------2--------3--------------5-----------|
   al respi__rar      comienzo a viv_ir

     Em          F#7add11      G6            Aadd9
e--------------------------------------------------0-----|
G--------------------------------------------------0-----|
B--------0-------------3------------4-----------------6--|
D------2-------------4------------5--------------7-------|
A----2-------------4------------5--------------7---------|
E--0-------------2------------3--------------5-----------|
  comienzo a brillar de       nuevo


G                         A
No quiero volver a este encierro de Piel
C5                    D5
no quiero, no quiero, no quiero ooooh
G              A
prefiero vagar salir de este lugar
C5               D5
perderme en el silencio


 REPETIR INTRO *2


     Em       F#7add11    G6         Aadd9
e------------------------------------------0-----|
G------------------------------------------0-----| 
B--------0---------3--------4-----------------6--|
D------2---------4--------5--------------7-------|
A----2---------4--------5--------------7---------|
E--0---------2--------3--------------5-----------|
   Al respi__rar      comienza la    luz


     Em          F#7add11      G6            Aadd9
e--------------------------------------------------0-----|
G--------------------------------------------------0-----|
B--------0-------------3------------4-----------------6--|
D------2-------------4------------5--------------7-------|
A----2-------------4------------5--------------7---------|
E--0-------------2------------3--------------5-----------|
   estoy ingre___sando en mi sueño          eterno


     Em        F#7add11    G6       Aadd9
e------------------------------------------0-----|
G------------------------------------------0-----| 
B--------0---------3--------4-----------------6--|
D------2---------4--------5--------------7-------|
A----2---------4--------5--------------7---------|
E--0---------2--------3--------------5-----------|
   al respi__rar      comienzo a flo_tar

     Em          F#7add11      G6            Aadd9
e--------------------------------------------------0-----|
G--------------------------------------------------0-----|
B--------0-------------3------------4-----------------6--|
D------2-------------4------------5--------------7-------|
A----2-------------4------------5--------------7---------|
E--0-------------2------------3--------------5-----------|
  comienzo a  contar de       cero

G                         A
No quiero volver a este encierro de piel 
C5                    D5
no quiero, no quiero, no quiero ooooh
G                A
prefiero vagar salir de este lugar
C5               D5
ahogarme en el decierto


TOCAR ESTA PARTE LENTO

e-------------------------------------------------------0-------0-|\
G----------------------------------------------------------0------||
B--------0--------------3-------------4-------------6---------6---||>*2
D------2---2----------4---4---------5---5-------------7-----------||
A----2--------------4-------------5---------------7---------------||
E--0--------------2-------------3---------------5-----------------|/


                       \
Em Em Asus2 G Asus2 G/A |
Em Em Asus2 Dsus2 Asus2 |>*2
                       /

Em Em Em Em

No,no
G                         A
No quiero volver a este encierro de Piel
C5                    D5
no quiero, no quiero, no quiero ooooh
G              A
prefiero vagar salir de este lugar
C5               D5
perderme en el silencio

G                         A
No quiero volver a este encierro de piel 
C5                    D5
no quiero, no quiero, no quiero ooooh
G                A
prefiero vagar salir de este lugar
C5               D5        Em
ahogarme en el decierto

SALIDA:
Em


ESPERO QUE SEA DE TU AGRADO

CUALQUIR DUDA, CONSEJO O COMENTARIO 
POR FAVOR ESCRIBIR A: omarmc4@
Suggest correction
Give kudos to tab author, rate the tab!
1 2 3 4 5
comments
print report bad tab
guest
You may want to rate the tab now too:
select rating
Wanna post a correction for this tab? Suggest correction