Oops, an error
Loading. Please wait.

Rastros Tab

37 views 1 this week
no commentswrite comment
1 2 3 4 5
3 more votes to show rating
add to favorites
launch autoscroll
font size
0
reset
how to read this tab
guitar tuner
×
Best way to learn
"Rastros"
Autoscroll
slow
fast
+/-
esc
set tempo
stop
Rastros
/*Este tema esta buenisimo*/
/*va dedicado para una persona muy especial para mi*/
/*Este tema es para ti: CLAUDIA G. C.*/
Intro: /**/

/*
e|------------------ 0 -|------------- 0 --|------------------ 0 --|
B|------------ 0 -------|--------- 0 ------|---------- 0 ----------|
G|------ 6 -------------|----- 6 ----------|----- 6 ---------------|
D|----------------------|------------------|-----------------------|
A|- 4 ------------------|- 0 --------------|-----------------------|
E|----------------------|------------------|- 7 -------------------|

                                                        Acorde
e|------------------|-----------------|----------------|-x----------|
B|----------- 0 ---|------------- 0 -|----------- 0 --|--x---------|
G|------- 2 -------|--------- 4 -----|-------- 2 -----|--x--- 4 ---|
D|---- 2 ----------|----- 4 ---------|----- 2 --------|--x--- 4 ---|
A|-----------------|-----------------|- 0 ------------|--x---------|
E|- 2 -------------|- 4 -------------|----------------|--x---------|*/

e|------------- 0 -|------------ 0 --|----------- 0 --|
B|-------- 0 ------|--------- 0 -----|-------- 0 -----|
G|---- 6 ----------|----- 6 ---------|----- 6 --------|
D|-----------------|-----------------|----------------|
A|- 4 -------------|- 0 -------------|----------------|
E|-----------------|-----------------|- 7 ------------|
               Mirando al cielo puedo ver

e|-------------|-------------|-------------|--------------|-x----|
B|----------- 0|---------- 0 |---------- 0 |---------- 0 -|-x-----|
G|------- 2 ---|------- 4 ---|------- 2 ---|------- 4 ----|-x-- 4 -|
D|---- 2 ------|---- 4 ------|---- 2 ------|---- 4 -------|-x-- 4 -|
A|-------------|-------------|- 0 ---------|--------------|-x------|
E|- 2----------|- 4 ---------|-------------|- 4 ----------1-x------|
           Tu rostro entre un adiós        desnuda      verdad

e|-----------|------------|-------------|------------|------------|
B|-------- 0 |--------- 0 |---------- 0 |--------- 0 |--------- 0-|
G|----- 2 ---|------ 4 ---|------- 2 ---|------- 4 --|------ 2 ---|
D|-- 2 ------|--- 4 ------|---- 2 ------|---- 4 -----|--- 2 ------|
A|-----------|------------|-------------|------------|------------|
E|-2---------|- 4---------|- 2 ---------|- 4 --------|- 2---------|
          Tus  recuerdos   van    así     Hiriendo el tiempo así

e|-------------|----------------|--------------|-x---------|
B|--------- 0 -|---------- 0 ---|--------- 0 --|-x---------|
G|------ 4 ----|------- 2 ------|------- 4 ----|-x--- 4 ---|
D|--- 4 -------|---- 2 ---------|---- 4 -------|-x--- 4 ---|
A|-------------|----------------|--------------|-x---------|
E|- 4 ---------|- 2 ------------|- 4 ----------|-x---------|
       Dejando un rastro a ti    Profundo y sin fin.

DO#m        SI     LA      MI      FA#m
Hoy no estas más en mis sueños
              SI           DO#m
Hoy no esperas por mi
       SI     LA      MI      FA#m
Dejarás libre la verdad
          SIm          DO#m
Yo si muero por ti

Intro: /**/ y después lo de abajo
e|------------- 0 -|------------ 0 --|----------- 0 --|
B|-------- 0 ------|--------- 0 -----|-------- 0 -----|
G|---- 6 ----------|----- 6 ---------|----- 6 --------|
D|-----------------|-----------------|----------------|
A|- 4 -------------|- 0 -------------|----------------|
E|-----------------|-----------------|- 7 ------------|
                El sol nace y  muere aquí

e|-------------|-------------|-------------|--------------|-x----|
B|----------- 0|---------- 0 |---------- 0 |---------- 0 -|-x-----|
G|------- 2 ---|------- 4 ---|------- 2 ---|------- 4 ----|-x-- 4 -|
D|---- 2 ------|---- 4 ------|---- 2 ------|---- 4 -------|-x-- 4 -|
A|-------------|-------------|- 0 ---------|--------------|-x------|
E|- 2----------|- 4 ---------|-------------|- 4 ----------1-x------|
            Color que irradia  en mí          Un rastro de ti

e|-----------|------------|-------------|------------|------------|
B|-------- 0 |--------- 0 |---------- 0 |--------- 0 |--------- 0-|
G|----- 2 ---|------ 4 ---|------- 2 ---|------- 4 --|------ 2 ---|
D|-- 2 ------|--- 4 ------|---- 2 ------|---- 4 -----|--- 2 ------|
A|-----------|------------|-------------|------------|------------|
E|-2---------|- 4---------|- 2 ---------|- 4 --------|- 2---------|
         Sensación  que  al   vivir         Viven  solas  en si

e|-------------|----------------|--------------|-x---------|
B|--------- 0 -|---------- 0 ---|--------- 0 --|-x---------|
G|------ 4 ----|------- 2 ------|------- 4 ----|-x--- 4 ---|
D|--- 4 -------|---- 2 ---------|---- 4 -------|-x--- 4 ---|
A|-------------|----------------|--------------|-x---------|
E|- 4 ---------|- 2 ------------|- 4 ----------|-x---------|
          Encuentran un luz        Que me guía a ti.

DO#m        SI     LA      MI      FA#m
Hoy no estas más en mis sueños?.

DO#m        SI     LA      MI      FA#m
Hoy no estas más en mis sueños?.
Suggest correction
Give kudos to tab author, rate the tab!
1 2 3 4 5
comments
print report bad tab
guest
You may want to rate the tab now too:
select rating
Wanna post a correction for this tab? Suggest correction