Oops, an error
Loading. Please wait.

Rh0+ Bass Tab

17 views 1 this week
no commentswrite comment
1 2 3 4 5
3 more votes to show rating
add to favorites
launch autoscroll
font size
0
reset
guitar tuner
Autoscroll
slow
fast
+/-
esc
set tempo
stop
Help us to improve Ultimate-Guitar.com Take our survey!
×
escuchen la cancion pa ubicarse bien
en especial en el intro
Intro
E|--2h0-2--|
A|---------|x8
D|---------|
G|---------|

E|---------|-22-222-|--------|-00-00---|
A|--22-222-|--------|-00-000-|---------|x2
D|---------|--------|--------|---2--2--|
G|---------|--------|--------|---------|

Dentro de un cajon
E|-------|-2222-|------|-0000--|
A|--2222-|------|-0000-|-------|x2
D|-------|------|------|-------|
G|-------|------|------|-------|

Hay mas
E|-------|--5-55-|-5-----|-2-222--|
A|--4-44-|-4-----|--7-77-|--------|x2
D|-------|-------|-------|--------|
G|-------|-------|-------|--------|

Hay mucho
E|-------|--5-55-|-5--|
A|--4-44-|-4-----|----|
D|-------|-------|----|
G|-------|-------|----|

Se repite pero ahora con introx4

El solia
E|-------|-2222-|------|-0000--|
A|--2222-|------|-0000-|-------|x2
D|-------|------|------|-------|
G|-------|------|------|-------|

Intro
E|--2h0-2--|
A|---------|x7
D|---------|
G|---------|

E|-------|-2222-|------|-00-00---|
A|--2222-|------|-0000-|---------|x6
D|-------|------|------|---2--2--|
G|-------|------|------|---------|

atte. miauricio
Suggest correction
Give kudos to tab author, rate the tab!
1 2 3 4 5
comments
print report bad tab
guest
You may want to rate the tab now too:
select rating
Wanna post a correction for this tab? Suggest correction