Oops, an error
Loading. Please wait.

Rh0+ Tab

by Octavia
35 views 3 this week
no commentswrite comment
1 2 3 4 5
3 more votes to show rating
add to favorites
launch autoscroll
font size
0
reset
how to read this tab
guitar tuner
×
Best way to learn
"RH0+"
Autoscroll
slow
fast
+/-
esc
set tempo
stop
17/1/2002

ESTA TABLATURA TRATA DE CONTENER TODAS LAS PARTES MAS IMPORTANTES DE LA 
CANCION, COMO SER EL SONIDO DE LAS ZAMPOÑAS, TANTO AL PRICIPIO COMO AL FINAL

(METRONOMO: 154)

ACORDES:

   F#7add11    B#7add11    A#7add11      E       C#m      A
e----0------------0-----------0----------0--------4-------0----
G----0------------0-----------0----------0--------5-------2---- 
B----3------------8-----------6----------1--------6-------2----
D----4------------9-----------7----------2--------6-------2----
A----4------------9-----------7----------2--------4-------0----
E----2------------7-----------5----------0--------4-------0----


INTRO:

   F#7add11    
e---------0--0------ \
G---------0--0------ |
B-------3----------- |> *8
D------4------------ |
A-----4------------- |
E----2-------------- /


PUNTEO DE ENTRADA 
 
 B#7add11                            F#add11  

e-11-11----11-11----11-11----11-11--|-11-12----11-9----------------
G-----------------------------------|--------------------12-----12- 
B-----------------------------------|------------------------------
D-----------------------------------|------------------------------
A-----------------------------------|------------------------------
E-----------------------------------|------------------------------


  A#7add11                            E  

e-----------------------------------|-11-12----11-9-------------11-
G-12-12----12-12----12-12----12-12--|--------------------12-------- 
B-----------------------------------|------------------------------
D-----------------------------------|------------------------------
A-----------------------------------|------------------------------
E-----------------------------------|------------------------------


 B#7add11                            F#add11  

e-11-11----11-11----11-11----11-11--|-11-12----11-9----------------
G-----------------------------------|--------------------12-----12- 
B-----------------------------------|------------------------------
D-----------------------------------|------------------------------
A-----------------------------------|------------------------------
E-----------------------------------|------------------------------


  A#7add11                            E  

e-11-12----11-12----11-12----11-12--|-11-12----11-12----11-12----11-11-
G-----------------------------------|----------------------------------
B-----------------------------------|----------------------------------
D-----------------------------------|----------------------------------
A-----------------------------------|----------------------------------
E-----------------------------------|----------------------------------


B#7add11       F#add11  
Dentro de un cajón 
      A#7add11      E  
vivia cual     opositor
B#7add11        F#add11    
se inventaba un no distinto 
  A#7add11   E  
a cada afirmación


C#m     A             E     F#add11    
Hay mas calles que bloquear oh yeah yeah yeah oh
C#m     A             E       F#add11    
Hay mas huelgas por hacer hay mas 
C#m       A           F#add11     
Hay mucho mas por que pelear 
hay mas, hay mas oh yeah yeah yeah


VOLVER A REPETIR EL PUNTEO DE ENTRADA


B#7add11   F#add11
El solía rezar a Dios
A#7add11    E
pidiendo un pan o dos    
B#7add11    F#add11
el ahora no reza mas 
A#7add11   E
quiere ser Dios


C#m     A             E     F#add11    
Hay mas calles que bloquear oh yeah yeah yeah oh
C#m     A             E       F#add11    
Hay mas huelgas por hacer hay mas 
C#m       A           F#add11     
Hay mucho mas por que pelear 
hay mas, hay mas oh yeah yeah yeah, oh


VOLVER A REPETIR EL PUNTEO DE ENTRADA


B#7add11    F#add11
El solía participar
A#7add11    E
en cada     decisión    
B#7add11    F#add11
el ahora prefiere ser  
A#7add11   E
LA     opsición

EN ESTA PARTE TODA LA ESTROFA SE TOCA CON F#add11

F#add11    
Esta vivo hay que ahogarlo
si esta arriba hay que undirlo
si esta a un lado a enpujarlo
si no esta oh yeah, yeah, yeah, oh


VOLVER A REPETIR EL PUNTEO DE ENTRADA


 B#7add11                            F#add11  

e-11-11----11-11----11-11----11-11--|-11-12----11-9----------------
G-----------------------------------|--------------------12-----12- 
B-----------------------------------|------------------------------
D-----------------------------------|------------------------------
A-----------------------------------|------------------------------
E-----------------------------------|------------------------------
 Si esta vivo                        hay que ahogarlo

  A#7add11                            E  

e-----------------------------------|-11-12----11-9-------------11-
G-12-12----12-12----12-12----12-12--|--------------------12-------- 
B-----------------------------------|------------------------------
D-----------------------------------|------------------------------
A-----------------------------------|------------------------------
E-----------------------------------|------------------------------
 ohhhh                                ahhhhhh


 B#7add11                            F#add11  

e-11-11----11-11----11-11----11-11--|-11-12----11-9----------------
G-----------------------------------|--------------------12-----12- 
B-----------------------------------|------------------------------
D-----------------------------------|------------------------------
A-----------------------------------|------------------------------
E-----------------------------------|------------------------------
 SI esta A un lado                     a empujarlo

  A#7add11                            E  

e-11-12----11-12----11-12----11-12--|-11-12----11-12----11-12----11-11-
G-----------------------------------|----------------------------------
B-----------------------------------|----------------------------------
D-----------------------------------|----------------------------------
A-----------------------------------|----------------------------------
E-----------------------------------|----------------------------------
 ohhhhhh                              ahhhhhh


 B#7add11                            F#add11  

e-11-11----11-11----11-11----11-11--|-11-12----11-9----------------
G-----------------------------------|--------------------12-----12- 
B-----------------------------------|------------------------------
D-----------------------------------|------------------------------
A-----------------------------------|------------------------------
E-----------------------------------|------------------------------
 Si esta arriba hay que              undirlo

  A#7add11                            E  

e-----------------------------------|-11-12----11-9-------------11-
G-12-12----12-12----12-12----12-12--|--------------------12-------- 
B-----------------------------------|------------------------------
D-----------------------------------|------------------------------
A-----------------------------------|------------------------------
E-----------------------------------|------------------------------
 SI esta A un lado a                 empujarlo


 B#7add11                            F#add11  

e-11-11----11-11----11-11----11-11--|-11-12----11-9----------------
G-----------------------------------|--------------------12-----12- 
B-----------------------------------|------------------------------
D-----------------------------------|------------------------------
A-----------------------------------|------------------------------
E-----------------------------------|------------------------------
 ohhhhhhhh                            ahhhhhhhhhhh


  A#7add11                            E  

e-11-12----11-12----11-12----11-12--|-11-12----11-12----11-12----11-11-
G-----------------------------------|----------------------------------
B-----------------------------------|----------------------------------
D-----------------------------------|----------------------------------
A-----------------------------------|----------------------------------
E-----------------------------------|----------------------------------
 uhhhhhh                              ahhhhhh


PUNTEO DE SALIDA 
este punteo es la tonada de zampoñas que se toca 
al final solamente acompañado por un redoble de tambores en ritmo de 
bailecito (eso creo)

e--------------------12-------------|--12----10--------------------
G------10----12-12------------------|--------------13-12-----------
B-12--------------------------------|------------------------------
D-----------------------------------|------------------------------
A-----------------------------------|------------------------------
E-----------------------------------|------------------------------

e-12----14-15----12-10----12-10----------|-15-14-12-10----------------------
G----------------------------------13-12-|-------------13-12----------------
B----------------------------------------|----------------------------------
D----------------------------------------|----------------------------------
A----------------------------------------|----------------------------------
E----------------------------------------|----------------------------------

e--------------------12-------------|--12----10--------------------
G------10----12-12------------------|--------------13-12-----------
B-12--------------------------------|------------------------------
D-----------------------------------|------------------------------
A-----------------------------------|------------------------------
E-----------------------------------|------------------------------

e-12----14-15----12-10----12-10----------|-15-14-12-10----------------------
G----------------------------------13-12-|-------------13-12----------------
B----------------------------------------|----------------------------------
D----------------------------------------|----------------------------------
A----------------------------------------|----------------------------------
E----------------------------------------|----------------------------------

e-12-12----12-------------------------------|----------------------12-10-12-10-12-10----
G--------------13-10-----12-12----12--------|-----12-10-10------------------------------
B--------------------------------------12-9-|--12----------12-11-9----------------------
D-------------------------------------------|-------------------------------------------
A-------------------------------------------|-------------------------------------------
E-------------------------------------------|-------------------------------------------

e-12-12----12-------------------------------|-------------------------------------------
G--------------13-10-----12-12----12--------|-----12-10-10------------------------------
B--------------------------------------12-9-|--12----------12-11-9----------------------
D-------------------------------------------|-------------------------------------------
A-------------------------------------------|-------------------------------------------
E-------------------------------------------|-------------------------------------------


ESPERO QUE SEA DE TU TOTAL AGRADO

CUALQUIR DUDA, CONCEJO O COMENTARIO 
POR FAVOR ESCRIBIR A MI E-MAIL QUE APARECE AL FINAL
Suggest correction
Give kudos to tab author, rate the tab!
1 2 3 4 5
comments
print report bad tab
guest
You may want to rate the tab now too:
select rating
Wanna post a correction for this tab? Suggest correction