Oops, an error
Loading. Please wait.

Ripiados Tab

by Octavia
11 views 3 this week
no commentswrite comment
1 2 3 4 5
3 more votes to show rating
add to favorites
launch autoscroll
font size
0
reset
how to read this tab
guitar tuner
×
Best way to learn
"Ripiados"
Autoscroll
slow
fast
+/-
esc
set tempo
stop
TRANSCRITO POR: Omar Miranda
23/07/2003

ACORDES:

    E   Dsus2/B   A/C#   A   Am   F#5   A5
e|--0------0-------0-----0----0-------------|
B|--0------3-------2-----2----1-------------|
G|--1------2-------2-----2----2---------2---|
D|--2------0-------2-----2----2----4----2---|
A|--2------2-------4-----0----3----4----0---|
E|--0------------------------------2--------|


NOTACION:

/ :DESLIZAR ABAJO
\ :DESLIZAR ARRIBA
X :TAPAR NOTA
(N) :NOTA FANTASMA

INTRO:

   E    Dsus2/B  E        Dsus2/B     E       Dsus2/B     A/C#     A       Am            E
e|----|------|----------|------------|-------|-----------|--------|-------|-------------|---|
B|----|------|----------|------------|-------|-----------|--------|-------|-------------|---|
G|----|------|(2)/4--(4)|/9\7--(7)\2/|4--(4)/|9\7----(7)\|6---(6)/|9--(9)\|5--(5)\4\2/5\|4--|
D|----|------|----------|------------|-------|-----------|--------|-------|-------------|---|
A|----|------|----------|------------|-------|-----------|--------|-------|-------------|---|
E|----|------|----------|------------|-------|-----------|--------|-------|-------------|---|
                                                                                       No te.......(verso)


VERSO:

E                  Dsus2/B
 No te vuelvas a caer
E                    Dsus2/B
 En los mares del rencor
E                    Dsus2/B
 Y no vuelvas a sembrar el miedo
       A/C#
 Este fango oscuro 
        A            Am         E
 Que en un segundo nos aniquilara

    E                 Dsus2/B         E
e|-----------------|----------------------------|
B|-----------------|----------------------------|
G|-----------------|----------------------------|
D|-----------------|----------------------------|
A|-----------------|--2-2-0-2-0-2---------------|
E|-----------------|------------------0---------|
      Y en los ripi___ados      Creceran 


    E               Dsus2/B            E
e|---------------|--------------------------|
B|---------------|--------------------------|
G|---------------|--------------------------|
D|---------------|--------------------------|
A|---------0-----|--2-2-0-2-0-2-0-2---------|
E|---------------|--------------------0-----|
    mil armo________nias       Que se haran un  


   E            Dsus2/B             A/C#       
e|----------|---------------------|---------|
B|----------|---------------------|---------|
G|----------|---------------------|---------|
D|----------|---------------------|---------|
A|----0-----|----2-2-0-2-0-2-0-2--|--4------|
E|----------|---------------------|---------|
    Arco________iris de plac_________eiier  


       A                           Am                  E
e|-----------------|--------------------------------|------|
B|-----------------|--------------------------------|------|
G|-----------------|--------------------------------|------|
D|-----------------|--------------------------------|------|
A|-----2/4---------|---------------4\3--------------|--2---|
E|-----------------|--------------------------------|--0---|
 Que anuncia el dia  En que el amor   vuelva a flore___cer
 

  
        E             Dsus2/B           E
e|-----------------|--------------------------|
B|-----------------|--------------------------|
G|-----------------|--------------------------|
D|-----------------|--------------------------|
A|-----------------|--2-2-0-2-0-2-0-2---------|
E|-----------------|--------------------0-----|
         De los es____combros nacer_____an 


         E            Dsus2/B          E
e|-----------------|------------------------|
B|-----------------|------------------------|
G|-----------------|------------------------|
D|-----------------|------------------------|
A|---------------0-|--2-2-0-2-0-2-0-2-------|
E|-----------------|-------------------0----|
           mil poe___sias Que se    haran 


   E            Dsus2/B             A/C#       
e|----------|--------------------|-------------|
B|----------|--------------------|-------------|
G|----------|--------------------|-------------|
D|----------|--------------------|-------------|
A|----------|---2-2-0-2-0-2-0-2--|--2/4-0-0-0--|
E|----------|--------------------|-------------|
       un para__iso de pla__________ceiier 

       
       A                           Am                 F#5
e|-----------------|--------------------------------|------|
B|-----------------|--------------------------------|------|
G|-----------------|--------------------------------|------|
D|-----------------|--------------------------------|--4---|
A|-------4---------|---------------4\3--------------|--4---|
E|-----------------|--------------------------------|--2---|
 Que anuncia el dia  En que el amor   vuelva a flore___cer


    F#5                               A5               \
e|---------------------------------|-------------|     |
B|---------------------------------|-------------|     |
G|---------------------(2)---------|--2-X-2-X-2--|     |> *3
D|--4--4--4--4--4-------4----------|--2-X-2-X-2--|     |
A|--4--4--4--4--4--4--4---4--4--4--|-------------|     |
E|--2--0--2--0--2--0--2---2--2--2--|-------------|     |
                                                      /

  E         Dsus2/B   E     Dsus2/B    E     Dsus2/B    A/C#    A     Am           E
e|---------|---------|-----|----------|-----|----------|-------|-----|5/8--8\7\5/8\7--|
B|---------|---------|-----|----------|-----|----------|-------|-----|----------------|
G|(2)/4--4/|9\7--(2)/|4--4/|9\7\6/7\2/|4--4/|9\7\6/7\2/|6----6/|9----|----------------|
D|---------|---------|-----|----------|-----|----------|-------|-----|----------------|
A|---------|---------|-----|----------|-----|----------|-------|-----|----------------|
E|---------|---------|-----|----------|-----|----------|-------|-----|----------------|
                                                                               No me.......(verso)

E                   Dsus2/B
 No me vuelvas a clavar
E                  Dsus2/B
 Odios hechos de metal
E                  Dsus2/B
 Y no vulvas a sembrar miedo
       A/C#
Esta helada muerte 
        A            Am       E
Que en un segundo nos devastara

    E                 Dsus2/B         E
e|-----------------|----------------------------|
B|-----------------|----------------------------|
G|-----------------|----------------------------|
D|-----------------|----------------------------|
A|-----------------|--2-2-0-2-0-2---------------|
E|-----------------|------------------0---------|
      Y en los ripi___ados      Creceran 

         E            Dsus2/B          E
e|-----------------|------------------------|
B|-----------------|------------------------|
G|-----------------|------------------------|
D|-----------------|------------------------|
A|---------------0-|--2-2-0-2-0-2-0-2-------|
E|-----------------|-------------------0----|
           mil poe___sias Que se    haran 

   E            Dsus2/B             A/C#       
e|----------|--------------------|-------------|
B|----------|--------------------|-------------|
G|----------|--------------------|-------------|
D|----------|--------------------|-------------|
A|--------0-|---2-2-0-2-0-2-0-2--|--2/4-0-0-0--|
E|----------|--------------------|-------------|
       un para__iso de pla__________ceiier 

       
       A                           Am                  E
e|-----------------|--------------------------------|------|
B|-----------------|--------------------------------|------|
G|-----------------|--------------------------------|------|
D|-----------------|--------------------------------|------|
A|-------4-(4)-----|---------------4\3-(3)----------|--2---|
E|-----------------|--------------------------------|--0---|
 Que anuncia el dia  En que el amor   vuelva a flore___cer

Dsus2/B             E
      Vuelva a florecer

  Dsus2/B         E        Dsus2/B         E          Dsus2/B         E
e|---------------|--------|---------------|----------|---------------|-----------------|
B|---------------|--------|---------------|----------|---------------|-----------------|
G|--------2/4--4/|9\7\6\2/|4--(4)---(4)-4/|9\7\6/7\2/|4--(4)--(4)--4/|9\7\6/7\6--6/9---|
D|---------------|--------|---------------|----------|---------------|-----------------|
A|---------------|--------|---------------|----------|---------------|-----------------|
E|---------------|--------|---------------|----------|---------------|-----------------|
    Vuelva a florecer           uelva a florecer               A florecer


ESPERO QUE SEA DE TU AGRADO

CUALQUIR DUDA, CONCEJO O COMENTARIO 
POR FAVOR ESCRIBIR A: omarmc4@
Suggest correction
Give kudos to tab author, rate the tab!
1 2 3 4 5
comments
print report bad tab
guest
You may want to rate the tab now too:
select rating
Wanna post a correction for this tab? Suggest correction