Oops, an error
Loading. Please wait.

Tendida Como Un Arco Tab

14 views 1 this week
no commentswrite comment
1 2 3 4 5
3 more votes to show rating
add to favorites
launch autoscroll
font size
0
reset
how to read this tab
guitar tuner
Autoscroll
slow
fast
+/-
esc
set tempo
stop
Help us to improve Ultimate-Guitar.com Take our survey!
×
TRANSCRITO POR: Omar Miranda
31/7/2002

ACORDES:

    Dm7   C   Gm7   F    G
e----1----0----3----1----3------
G----1----1----3----1----0------
B----2----0----3----2----0------
D----0----2----3----3----0------
A---------3----5----3----2------
E--------------3----1----3------


INTRO:


   Dm7                             Dm7             C 
e-----1--0-1---1-----1--0-1---1-|-----1--0-1---1------0-----0-0------
G------1-----1--------1-----1---|------1-----1----------1-1--1-------
B---2--------------2------------|---2--------------------------------
D--0--------------0-------------|--0----------------2----------------
A-------------------------------|------------------3-----------------
E-------------------------------|------------------------------------


   Dm7                             Dm7             C 
e-----1--0-1---1-----1--0-1---1-|-----1--0-1---1---0--0--0-----0-0---
G------1-----1--------1-----1---|------1-----1-----1--1--1-----1-1---
B---2--------------2------------|---2--------------0--0--0-----0-0---
D--0--------------0-------------|--0---------------2--2--2-----2-2---
A-------------------------------|------------------3--3--3-----3-3---
E-------------------------------|------------------------------------


VERSO:

   Dm7                             Dm7             C 
e-----1--0-1---1-----1--0-1---1-|-----1--0-1---1------0-----0-0------
G------1-----1--------1-----1---|------1-----1----------1-1--1-------
B---2--------------2------------|---2--------------------------------
D--0--------------0-------------|--0----------------2----------------
A-------------------------------|------------------3-----------------
E-------------------------------|------------------------------------
                             Tendi________da como un arco el alma 


   Dm7                             Dm7             C 
e-----1--0-1---1-----1--0-1---1-|-----1--0-1---1------0-----0-0------
G------1-----1--------1-----1---|------1-----1----------1-1--1-------
B---2--------------2------------|---2--------------------------------
D--0--------------0-------------|--0----------------2----------------
A-------------------------------|------------------3-----------------
E-------------------------------|------------------------------------
   tuve                     Y un deseo como un     aguila 


    Dm7                           
e-----1--0-1---1-----1--0-1---1-|
G------1-----1--------1-----1---|
B---2--------------2------------|
D--0--------------0-------------|
A-------------------------------|
E-------------------------------|
  que sube


Gm7
Partio la flecha 
     F
y se perdio en el aire
Gm7
lanzoce el ala 

   Dm7                             C 
e-----1--0-1---1-----1--0-1---1-|--0--0--0-----0-0---
G------1-----1--------1-----1---|--1--1--1-----1-1---
B---2--------------2------------|--0--0--0-----0-0---
D--0--------------0-------------|--2--2--2-----2-2---
A-------------------------------|--3--3--3-----3-3---
E-------------------------------|--------------------
  y se perdio   en la nube


   Dm7                             Dm7             C 
e-----1--0-1---1-----1--0-1---1-|-----1--0-1---1------0-----0-0------
G------1-----1--------1-----1---|------1-----1----------1-1--1-------
B---2--------------2------------|---2--------------------------------
D--0--------------0-------------|--0----------------2----------------
A-------------------------------|------------------3-----------------
E-------------------------------|------------------------------------
                             Tendi________da como un arco el alma 


   Dm7                             Dm7             C 
e-----1--0-1---1-----1--0-1---1-|-----1--0-1---1------0-----0-0------
G------1-----1--------1-----1---|------1-----1----------1-1--1-------
B---2--------------2------------|---2--------------------------------
D--0--------------0-------------|--0----------------2----------------
A-------------------------------|------------------3-----------------
E-------------------------------|------------------------------------
   tuve                     Y un deseo como un     aguila 


    Dm7                           
e-----1--0-1---1-----1--0-1---1-|
G------1-----1--------1-----1---|
B---2--------------2------------|
D--0--------------0-------------|
A-------------------------------|
E-------------------------------|
  que sube


Gm7
Partio la flecha 
     F
y se perdio en el aire
Gm7
lanzoce el ala 

   Dm7                            
e-----1--0-1---1-----1--0-1---1-|
G------1-----1--------1-----1---|
B---2--------------2------------|
D--0--------------0-------------|
A-------------------------------|
E-------------------------------|
  y se perdio   en la nube


INTERMEDIO:
Esta parte es el acompañamiento de la guitarra para el piano 

 Dm7  C   F    G
 C    G   Dm7  C  Dm7

SOLO:
Esta parte es la tonada de la quena.
(no estoy muy seguro de algunas notas en esta parte pero 
suena bien si sabes otra forma por favor envialo a mi correo)

Al puntear las notas de las dos primeras barras tienes que hacerlo de 
forma larga y constante.
Los acordes siguen la misma idea 

NOTA: en las notas ...C Dm7... la nota C es un cambio rapido 
que se rasguea una vez .Escucha la canción para que tengas una mejor idea


   G          C     Dm7      C      G          F          Dm7
e--10---------7--|--8--------12-----13----|----12--10--8--10--10--10--
G----------------|------------------------|---------------------------
B----------------|------------------------|---------------------------
D----------------|------------------------|---------------------------
A----------------|------------------------|---------------------------
E----------------|------------------------|---------------------------


Gm7
Partio la flecha 
     F
y se perdio en el aire
Gm7
lanzoce el ala 

   Dm7                            
e-----1--0-1---1-----1--0-1---1-|
G------1-----1--------1-----1---|
B---2--------------2------------|
D--0--------------0-------------|
A-------------------------------|
E-------------------------------|
  y se perdio   en la nube

Solo de la guitarra:

   Dm7    C              F        G
e--10---8--------------|-8--13----12-10-10-8-7---|
G---------11--8--10-11-|-------------------------| 
B----------------------|-------------------------|
D----------------------|-------------------------|
A----------------------|-------------------------|
E----------------------|-------------------------|

   C                 G                   Dm7            C           Dm7
e----------------------------------------------10--10---------------------
G------8------5------10-8---------8-10-------8-----8----------8----------- 
B----7------7---7---------10-9-10----------7-------7----9--7-----7--9--7--
D--5-------------------------------------0--------------------------------
A-------------------------------------------------------------------------
E-------------------------------------------------------------------------

Tonada de quena:

   G          C     Dm7      C      G          F          Dm7
e--10---------7--|--8--------12-----13----|----12--10--8--10--10--10--
G----------------|------------------------|---------------------------
B----------------|------------------------|---------------------------
D----------------|------------------------|---------------------------
A----------------|------------------------|---------------------------
E----------------|------------------------|---------------------------


En esta parte se canta a dos voces 
la primera linea es Oscar Gracia
la segunda linea es Omar Gonzáles


Dm7 C F       G F             Dm7  C
      Como un aguila el alma
               Como un aguila el alma 
G       F G 
Como un arco
         Como un arco
Dm7 C   G          F            Dm7
Flecha en el aire
        Una Flecla flecha en el aire
         C       G Dm7
Ala que sube
         Ala que sube
Dm7
Flecha 
      Flecha en el alma
          C G         Dm7
Aguila el arco
            Aguila el arco

SALIDA:

Dm7 Dm7 C C C C C
Dm7 Dm7 C C C C C


ESPERO QUE SEA DE TU AGRADO

CUALQUIR DUDA, CONCEJO O COMENTARIO 
POR FAVOR ESCRIBIR A: omarmc4@
Suggest correction
Give kudos to tab author, rate the tab!
1 2 3 4 5
comments
print report bad tab
guest
You may want to rate the tab now too:
select rating
Wanna post a correction for this tab? Suggest correction