Oops, an error
Loading. Please wait.

Un Dia Mas Tab

29 views 1 this week
no commentswrite comment
1 2 3 4 5
3 more votes to show rating
add to favorites
launch autoscroll
font size
0
reset
how to read this tab
guitar tuner
×
Best way to learn
"Un Dia Mas"
Autoscroll
slow
fast
+/-
esc
set tempo
stop
TRANSCRITO POR: Omar Miranda
06/03/2005

ACORDES:

  Csus2  Bb  F   G7   C5 Bb5  F5 G7(I)
e|--3----1---1---3--------------------|
B|--3----3---1---3--------------------|
G|--5----3---2---4----5---3-------4---|
D|--5----3---3---3----5---3---3---3---|
A|--3----1---3---5----3---1---3---5---|
E|-----------1---3------------1---3---|

INTRO:

Csus2 Bb
F     G7


VERSO:


    Csus2                Bb                   F                    G7
e|--------------------|--------------------|--------------------|--------------------|
B|---------3-------3--|---------3-------3--|-------1-3-1---1-3--|---------3-------3--|
G|-------5---5---5----|-------3---3---3----|--------------------|-------4---4---4----|
D|-----5-------5------|-----3-------3------|-----3-------3------|-----3-------3------|
A|--3-----------------|--1-----------------|--3-----------------|--5-----------------|
E|--------------------|--------------------|--------------------|--------------------|
    Un día               más Todo vuelve a    comenzar             Se abren los caminos


    Csus2                Bb                   F                    G7
e|--------------------|--------------------|--------------------|--------------------|
B|---------3-------3--|---------3-------3--|-------1-3-1---1-3--|---------3-------3--|
G|-------5---5---5----|-------3---3---3----|--------------------|-------4---4---4----|
D|-----5-------5------|-----3-------3------|-----3-------3------|-----3-------3------|
A|--3-----------------|--1-----------------|--3-----------------|--5-----------------|
E|--------------------|--------------------|--------------------|--------------------|
    La misma             luz y esos rostros   pálidos              Buscando destinos


CORO:

C5                  Bb5
Y de pronto estabas tú
                F5
Toda llena de color
                    G7(I)
Regalando a todo el mundo esa sonrisa


VERSO:

    Csus2                Bb                   F                    G7
e|--------------------|--------------------|--------------------|--------------------|
B|---------3-------3--|---------3-------3--|-------1-3-1---1-3--|---------3-------3--|
G|-------5---5---5----|-------3---3---3----|--------------------|-------4---4---4----|
D|-----5-------5------|-----3-------3------|-----3-------3------|-----3-------3------|
A|--3-----------------|--1-----------------|--3-----------------|--5-----------------|
E|--------------------|--------------------|--------------------|--------------------|
    Un día               más    Vuelva mi tristeza a hablar        Se va haciendo un vicio

    Csus2                Bb                   F                    G7
e|--------------------|--------------------|--------------------|--------------------|
B|---------3-------3--|---------3-------3--|-------1-3-1---1-3--|---------3-------3--|
G|-------5---5---5----|-------3---3---3----|--------------------|-------4---4---4----|
D|-----5-------5------|-----3-------3------|-----3-------3------|-----3-------3------|
A|--3-----------------|--1-----------------|--3-----------------|--5-----------------|
E|--------------------|--------------------|--------------------|--------------------|
    El mismo             gris La misma fría   sensación            Los mismos sonidos

VERSO:

C5                  Bb5
Y de pronto estabas tú
                  F5
Deslumbrante aparición
                   G7(I)
Dándole por fin sentido a este día
C5                  Bb5
Y de pronto estabas tú
                F5
Toda llena de color
                    G7(I)
Regalando a todo el mundo esa sonrisa


INTERMEDIO:

    Csus2                       Bb                          F                           G7
e|--3-x-3-x---3-3---x-3-x-3--|--1-x-1-x---1-1---x-1-x-1--|--1-x-1-x---1-1---x-1-x-1--|--3-x-3-x---3-3---x-3-x-3--|
B|--3-x-3-x---3-3---x-3-x-3--|--3-x-3-x---3-3---x-3-x-3--|--1-x-1-x---1-1---x-1-x-1--|--3-x-3-x---3-3---x-3-x-3--|
G|--5-x-5-x---5-5---x-5-x-5--|--3-x-3-x---3-3---x-3-x-3--|--2-x-2-x---2-2---x-2-x-2--|--4-x-4-x---4-4---x-4-x-4--|
D|--5-x-5-x---5-5---x-5-x-5--|--3-x-3-x---3-3---x-3-x-3--|--3-x-3-x---3-3---x-3-x-3--|--3-x-3-x---3-3---x-3-x-3--|
A|--3-x-3-x---3-3---x-3-x-3--|--1-x-1-x---1-1---x-1-x-1--|--3-x-3-x---3-3---x-3-x-3--|--5-x-5-x---5-5---x-5-x-5--|
E|---------------------------|---------------------------|--1-x-1-x---1-1---x-1-x-1--|--3-x-3-x---3-3---x-3-x-3--|
                       La oscuridad            Nos devuelve al hogar                    De donde salimos

    Csus2                       Bb                          F                           G7
e|--3-x-3-x---3-3---x-3-x-3--|--1-x-1-x---1-1---x-1-x-1--|--1-x-1-x---1-1---x-1-x-1--|--3-x-3-x---3-3---x-3-x-3--|
B|--3-x-3-x---3-3---x-3-x-3--|--3-x-3-x---3-3---x-3-x-3--|--1-x-1-x---1-1---x-1-x-1--|--3-x-3-x---3-3---x-3-x-3--|
G|--5-x-5-x---5-5---x-5-x-5--|--3-x-3-x---3-3---x-3-x-3--|--2-x-2-x---2-2---x-2-x-2--|--4-x-4-x---4-4---x-4-x-4--|
D|--5-x-5-x---5-5---x-5-x-5--|--3-x-3-x---3-3---x-3-x-3--|--3-x-3-x---3-3---x-3-x-3--|--3-x-3-x---3-3---x-3-x-3--|
A|--3-x-3-x---3-3---x-3-x-3--|--1-x-1-x---1-1---x-1-x-1--|--3-x-3-x---3-3---x-3-x-3--|--5-x-5-x---5-5---x-5-x-5--|
E|---------------------------|---------------------------|--1-x-1-x---1-1---x-1-x-1--|--3-x-3-x---3-3---x-3-x-3--|
                        Hoy soñare          Que te vuelvo a encontrar                   Y que eres mía


VERSO:

C5                    Bb5
Y en mis sueños estas tu
                F5
Toda llena de color
                G7(I)
Yo por ti haría cualquier sacrificio
C5                 Bb5
Porque aparecieras tú
                  F5
Deslumbrante como sol
                   G7(I)
Dándole por fin sentido a mis días

C5         Bb5
ahhh....oh yeah
   F5      G7(I)
yeeiea   oh......


SALIDA:

    C5                         Bb5                        F5                         G7(I)
e|------------------10------|------------------10------|------------------10------|--10-12--10-12--10-12--10-12--10-12-10-|
B|--12--13--12--13------13--|--12--13--12--13------13--|--12--13--12--13------13--|---------------------------------------|
G|--------------------------|--------------------------|--------------------------|---------------------------------------|
D|--------------------------|--------------------------|--------------------------|---------------------------------------|
A|--------------------------|--------------------------|--------------------------|---------------------------------------|
E|--------------------------|--------------------------|--------------------------|---------------------------------------|

    C5                         Bb5                        F5                         G7(I)
e|------------------10------|------------------10------|------------------10------|--10-12--10-12--10-12--10-12--10-12-10-|
B|--12--13--12--13------13--|--12--13--12--13------13--|--12--13--12--13------13--|---------------------------------------|
G|--------------------------|--------------------------|--------------------------|---------------------------------------|
D|--------------------------|--------------------------|--------------------------|---------------------------------------|
A|--------------------------|--------------------------|--------------------------|---------------------------------------|
E|--------------------------|--------------------------|--------------------------|---------------------------------------|
    Y en mis sueños estas      tu         Toda llena de color      Yo por ti haría cualquier sacrificio

    C5                  Bb5                 F5                  G7(I)               C5
e|---3-3-3-3-3-3-3-3-|---3-3-3-3-3-3-3-3-|---3-3-3-3-3-3-3-3-|---3-3-3-3-3-3-3-3-|------|
B|-------------------|-------------------|-------------------|-------------------|------|
G|--5-5-5-5-5-5-5-5--|--5-5-5-5-5-5-5-5--|--5-5-5-5-5-5-5-5--|--5-5-5-5-5-5-5-5--|--5---|
D|-------------------|-------------------|-------------------|-------------------|------|
A|-------------------|-------------------|-------------------|-------------------|------|
E|-------------------|-------------------|-------------------|-------------------|------|
    ohhh............oh yeah............  yeeiea.........yeeiaaa......................


ESPERO QUE SEA DE TU AGRADO

CUALQUIER DUDA, CONCEJO O COMENTARIO
POR FAVOR ESCRIBIR
A MI NUEVO CORREO: omctabs@
Suggest correction
Give kudos to tab author, rate the tab!
1 2 3 4 5
comments
print report bad tab
guest
You may want to rate the tab now too:
select rating
Wanna post a correction for this tab? Suggest correction