Oops, an error
Loading. Please wait.

Virtual Tab

26 views 1 this week
no commentswrite comment
1 2 3 4 5
3 more votes to show rating
add to favorites
launch autoscroll
font size
0
reset
how to read this tab
guitar tuner
×
Best way to learn
"Virtual"
Autoscroll
slow
fast
+/-
esc
set tempo
stop
TRANSCRITO POR: Omar Miranda
26/12/2002

ACORDES:
  
   G    Dsus2  F7   Cadd9  G5   D5   F5   C5  G(I)  Dsus2(I)  Em5
e--3-----0------0-----0------------------------10-----12--------------
G--0-----3------1-----5-------------------------8-----10--------------
B--0-----2------2-----0----------7---------5----7------9--------------
D--0-----0------3-----0-----5----7----3----5----0------0-------2------
A---------------3-----3-----5----5----3----3-------------------2------
E--3------------0-----------3---------1------------------------0------

INTRO:

 G  Dsus2  F7   Cadd9
 G  Dsus2  F7   Cadd9

 G5   D5   F5   C5 D5\
 G5   D5   F5   C5 D5 |>*2
                     /


G5            D5   F5       C5 D5
  Hay otro SOL     LA misma luna aca
G5            D5       F5               C5 D5
  y el silencio hoy me inspira a ser mas
G5            D5   F5      C5   D5
  este lugar       podrido y mortal 
G5        D5           F5               C5 D5
  me ha cansado y  obligado  hoy solo quiero 


     G5           D5  F5                C5 D5
  gritar y gritar     para dejar de ser normal 
 G5        D5  F5               C5 D5
  y mortal     hoy solo quiero gritar 
 G5        D5  F5                C5 D5
  y gritar     para dejar de ser normal 
 G5        D5  F5             C5 
  uno mas      hoy solo quiero

    Em5            Fm5              Em5            Fm5
e|--------------|----------------|--------------|----------------|
G|--------------|----------------|--------------|----------------|
B|-----0--------|----1---1-------|-----0--------|------1---------|
D|----2----2----|---3-3-3-3------|----2----2----|---3-3-3-3------|
A|---2----------|----------------|---2----------|----------------|
E|--0-----------|--3---3---------|--0-----------|--3---3---------|                   
                   respirar                        tomar el viento


    Em5            Fm5              Em5            Fm5           Cadd9
e|--------------|----------------|--------------|----------------0--0--0--|
G|--------------|----------------|--------------|----------------5--5--5--|
B|-----0--------|----1---1-------|-----0--------|----1---1-------0--0--0--|
D|----2----2----|---3-3-3-3------|----2----2----|---3-3-3-3------0--0--0--|
A|---2----------|----------------|---2----------|----------------3--3--3--|
E|--0-----------|--3---3---------|--0-----------|--3---3------------------|
                   un poco mas                     solo quiero gritar


Cadd9    G5   D5   F5   C5 D5
  yeeeoh       ohh      oohh

    G5   D5   F5   C5 D5  *3

G5               D5   F5         C5 D5
  El tiempo esta      cansado de girar
G5              D5     F5          C5 D5
  ya te importa todo estático está
G5             D5   F5             C5 D5
  y alegre voy      hacia un lugar virtual
G5        D5        F5         C5  D5
  sin pasado, ni presente o pecado original

G5                  D5  F5                C5 D5
  y gritar y gritar     para dejar de ser normal 
 G5        D5  F5               C5 D5
  y mortal     hoy solo quiero gritar 
 G5        D5  F5                C5 D5
  y gritar     para dejar de ser normal 
 G5        D5  F5             C5     Cadd9  Cadd9
  uno mas      hoy solo quiero    gritar


  G(I)  Dsus2(I)
  G(I)  G(I)

    G5                     D5                  F5               C5 D5
e|--15-15-15-15-15-15-15-|-14-14-14-14-14-14-|-12-12-12-12-12-|-14-14-14-14-14-|
G|---0--0--0--0--0--0--0-|--0--0--0--0--0--0-|--0--0--0--0--0-|--0--0--0--0--0-|
B|-----------------------|-------------------|----------------|----------------|
D|-----------------------|-------------------|----------------|----------------|
A|-----------------------|-------------------|----------------|----------------|
E|-----------------------|-------------------|----------------|----------------|

    G5                     D5                  F5               C5 D5
e|--15-15-15-15-15-15-15-|-14-14-14-14-14-14-|-12-12-12-12-12-|-14-14-14-14-14-|
G|---0--0--0--0--0--0--0-|--0--0--0--0--0--0-|--0--0--0--0--0-|--0--0--0--0--0-|
B|-----------------------|-------------------|----------------|----------------|
D|-----------------------|-------------------|----------------|----------------|
A|-----------------------|-------------------|----------------|----------------|
E|-----------------------|-------------------|----------------|----------------|

   G5                   D5                
e|--------------------------------------|
G|-8-10-12-8-10-12-8-10-12-8-10-12-8-8--|
B|-0--0--0-0--0--0-0--0--0-0--0--0-0-0--|
D|--------------------------------------|
A|--------------------------------------|
E|--------------------------------------|

   F5              C5 D5
e|-----------------------------------|
G|-8-10-12-8-10-12-8-10-12-8-10-12-8-|
B|-0--0--0-0--0--0-0--0--0-0--0--0-0-|
D|-----------------------------------|
A|-----------------------------------|
E|-----------------------------------|
   hoy solo quiero 

    Em5            Fm5              Em5            Fm5
e|--------------|----------------|--------------|----------------|
G|--------------|----------------|--------------|----------------|
B|-----0--------|----1---1-------|-----0--------|------1---------|
D|----2----2----|---3-3-3-3------|----2----2----|---3-3-3-3------|
A|---2----------|----------------|---2----------|----------------|
E|--0-----------|--3---3---------|--0-----------|--3---3---------|                   
                   respirar                        tomar el viento


    Em5            Fm5              Em5            Fm5           Cadd9
e|--------------|----------------|--------------|----------------0--0--0--|
G|--------------|----------------|--------------|----------------5--5--5--|
B|-----0--------|----1---1-------|-----0--------|----1---1-------0--0--0--|
D|----2----2----|---3-3-3-3------|----2----2----|---3-3-3-3------0--0--0--|
A|---2----------|----------------|---2----------|----------------3--3--3--|
E|--0-----------|--3---3---------|--0-----------|--3---3------------------|
         uh....    un poco mas                     yo solo quiero gritar


 Cadd9    G5   D5   F5   C5 D5
   yeeeoh       ohh      oohh.....
 G5   D5   F5   C5 D5
  ohhh nooo ohhh....oh.....
 G5   D5   F5   C5 D5
 .............uhmmm....
 G5   D5   F5   C5 D5
 ........

       G5          D5   
  y gritar y gritar 
F5            C5 D5 
  hoy solo quiero 
         G5          D5   
    gritar y gritar 
F5            C5 D5 
  hoy solo quiero 
         G5          D5   
    gritar y gritar 
F5            C5 D5 
  hoy solo quiero 
         G5          D5   
    gritar y gritar 
F5            C5 D5 
  hoy solo quiero 
         G5          D5   
    gritar y gritar 
F5            C5 D5 
  hoy solo quiero 
         G5          D5   
    gritar y gritar 
F5         C5 D5   G5   D5
  en un lugar virtual


ESPERO QUE SEA DE TU AGRADO

CUALQUIR DUDA, CONSEJO O COMENTARIO 
POR FAVOR ESCRIBIR A: omarmc4@
Suggest correction
Give kudos to tab author, rate the tab!
1 2 3 4 5
comments
print report bad tab
guest
You may want to rate the tab now too:
select rating
Wanna post a correction for this tab? Suggest correction