Oops, an error
Loading. Please wait.

La Verraquera Tab

611 views 27 this week
no commentswrite comment
1 2 3 4 5
2 more votes to show rating
add to favorites
launch autoscroll
font size
0
reset
how to read this tab
guitar tuner
Autoscroll
slow
fast
+/-
esc
set tempo
stop
Help us to improve Ultimate-Guitar.com Take our survey!
×
Añado: la letra de la cancion es algo fuerte les advierto :D

Espero que les sirva de algo lo saque a oido :D primer post :D


E---5-8-7-5-8-5----5-8-7-5-7-4---4-7-5-4-7-4---4-7-5-7-7/8-5--
B-5--------------5-------------5-------------5----------------
G-------------------------------------------------------------
D-------------------------------------------------------------
A-------------------------------------------------------------
E-------------------------------------------------------------

2

-5-5-5-5---------5-4-5-7-7/8-5---5-8-7-4---4-7-5-4-5----
---------8-6-6-6---------------5---------5--------------
--------------------------------------------------------
--------------------------------------------------------
--------------------------------------------------------ESTE SE
--------------------------------------------------------REPITE


          (Am)                    (E)
yo vengo de un pueblito cerca de santa maria
                                  (Am)
alli me crio mi taita con pura puteria.

  (Am)                                (E)
yo soy maton a sueldo que no me asusta nada
                                   (Am)
nunca me pongo triste por cualquier guevonada.


CORO:
(Am)                 (Dm)                (Am)
no hay golpe que yo falle ni golpe que yo pierda,
               (E)                   Am
la vida que yo tengo vale una puta mierda (bis).

ACÁ REPITE EL PUNTEO DEL QUE ESTA EN EL INICIO.
Y YA REPIDO LA MISMA SECUENCIA DE ACORDES QUE EN EL INICO.

yo no le temo a nada
con mi peinilla nueva
al que a mi me moleste
yo le arranco una gueva.

sepa que a mi me emputa
que cualquier aturdido
sin conocer mi nombre
me crea malparido.

CORO #2:

yo desde muy pequeño
he sabido ser berraco,
si una pelea pierdo
seguro que me capo (bis).
Suggest correction
Give kudos to tab author, rate the tab!
1 2 3 4 5
comments
print report bad tab
guest
You may want to rate the tab now too:
select rating
Wanna post a correction for this tab? Suggest correction