Oops, an error
Loading. Please wait.

Obstacles Tab

51 views 1 this week
no commentswrite comment
1 2 3 4 5
excellent!
x 1
add to favorites
launch autoscroll
font size
0
reset
how to read this tab
guitar tuner
Tab Pro tools
  • play this tab
  • loop segment
  • change instrument
  • show fretboard
  • metronome
Autoscroll
slow
fast
+/-
esc
set tempo
stop
Contributor
Tuning
D A D G B E
*##--------------------------OFFICIAL TAB---------------------------------##*
*##-------------------------OCTOBER CRISIS--------------------------------##*
*##---------------------------OBSTACLES-----------------------------------##*
 

INTRO

  4/4
    Gtr I
    E E  E  E  E E  E  E  E E  E   E  E  E  E   E  E  E  E   E  E  E  4x
||-------------------------------|------------------------------------||----|
||o------------------------------|-----------------------------------o||----|
||-------------------------------|------------------------------------||----|
||------15-15------15-15------15-|------15-15--------15-15--------15--||----|
||o---0----------0----------0----|---13-----------13-----------13----o||----|
||--0----------0----------0------|-0-----------13-----------13--------||----|


  Gtr II
  E     E   E   E  E    E   E   E   E  E
|--------------------|-------------------||
|--------------------|-------------------||
|--------------------|-------------------||
|-0-----3-------1--1-|--0---3-------1--1-||
|-0-----1---0---1--1-|--0---1---0---1--1-||
|-0---------0---1--1-|--0-------0---1--1-||


RIFF1

    Gtr I
    TPTP   TPTPTP TPTP  TPTP   TPTPTP TPTP
    E E E  E E E  E E   E E E  E E E  E E  4x
||--------------------|--------------------||----|
||o-------------------|-------------------o||----|
||--------------------|--------------------||----|
||--------------------|--------------------||----|
||o---6-5----6-5----6-|---6-5----6-5----6-o||----|
||--0------0------0---|-6------3------3----||----|


RIFF2
  Gtr II
  E  E E  E   E E  E   E  E E  E  E E  E E  E E  E E   E  E E
|--------------------|-------------------------------|--------|
|--------------------|-------------------------------|--------|
|-7--7-8--5--10s8--8-|-7--5-8--5-------3s5-------5s7-|-7--7-8-|
|--------------------|-------------------------------|--------|
|-5--5-6--3---8s6--6-|-5--7-6--3-------1s3-------3s5-|-5--5-6-|
|--------------------|------------0-0-------0-0------|--------|


  E  E E E E  E E E E
|---------------------||
|---------------------||
|-5--------3--------3-||
|---------------------||
|-3--------1--------1-||
|----0-0-0----0-0-0---||


RIFF3
ALL DOWNPICKED EXCEPT (*) ABOVE NOTE (ALTERNATE PICK)


  Gtrs I, II                  * * *
  E E E E E E E E E E E E E   E E E E E E E E E E E E E E
|---------------------------|-----------------------------|
|---------------------------|-----------------------------|
|---------------------------|-----------------------------|
|---------------3---2-------|-----------------3---2-------|
|-----5---4---1-------------|-------5---4---1-------------|
|-0-0---0---0-----0---4-0-1-|-0-0-0---0---0-----0---1-0-4-|


  E E E E E E E E E E E E E
|---------------------------|
|---------------------------|
|---------------------------|
|---------------3---2-------|
|-----5---4---1-------------|
|-0-0---0---0-----0---4-0-1-|


  E E E E E E E E E E E E E E E
|-------------------------------||
|-------------------------------||
|-------------------------------||
|-0-1s3-----3s5-----5s7-----7s8-||
|-0-----------------------------||
|-0-1s3-0-0-3s5-0-0-5s7-0-0-7s8-||


RIFF1 HARMONY

  Gtr II
  TP TPTP TP TPTP TP TP  TP TPTP   TPTP TPTP
  E  E E  E  E E  E  E   E  E E  E E E  E E
|----------------------|--------------------||----|
|----------------------|--------------------||----|
|----------------------|--------------------||----|
|----------------------|-----------5-3----5-||----|
|---10-8----10-8----10-|---10-8-------------||----|
|-0-------0-------0----|-6-------3------3---||----|


CHORUS
  Gtr I
    TPTP TPTP TP TPTP    TPTP TPTPTPTP
  E E E  E E  E  E E   E E E  E E E E
|--------------------|----------------|
|--------------------|----------------|
|--------------------|----------------|
|--------------------|------------8-7-|
|-0-8-7-10-8-11-10-8-|-8-8-7-10-8-----|
|-0------------------|-8--------------|


     TPTP TPTP TP TPTP    TPTP TPTPTPTPTP
   E E E  E E  E  E E   E E E  E E E E E
|---------------------|-------------------||-|
|---------------------|------------------o||-|
|---------------------|-------------------||-|
|---------------------|---8-7----7---7----||-|
|-10-8-7-10-8-11-10-8-|-8-----10---8---7-o||-|
|-10------------------|-8-----------------||-|


  Gtr II
  E          E          E          E   E    E
|----------|---------|-----------|-------------|
|----------|---------|-----------|-------------|
|----------|---------|-----------|-------------|
|-0--------|-8-------|-10--------|-8---7S===3--|
|-0--------|-8-------|-10--------|-8---7S===3--|
|-0--------|-8-------|-10--------|-8---7S===3--|


  E E E E E E E E E E E E E E E E   E E E E E E E E E E E E E E E E
|---------------------------------|---------------------------------|--|
|---------------------------------|---------------------------------|--|
|---------------------------------|---------------------------------|--|
|-------0-------0-------0-------0-|-------8-------8-------8-------8-|--|
|-------0-------0-------0-------0-|-------8-------8-------8-------8-|--|
|-0-0-0-0-0-0-0-0-0-0-0-0-0-0-0-0-|-8-8-8-8-8-8-8-8-8-8-8-8-8-8-8-8-|--|


   E  E  E  E  E  E  E  E  E  E  E  E  E  E  E  E   E   E   E
|-------------------------------------------------|-----------||----|
|-------------------------------------------------|-----------||----|
|-------------------------------------------------|-----------||----|
|----------10----------10----------10----------10-|-8---7S==3-||----|
|----------10----------10----------10----------10-|-8---7S==3-||----|
|-10-10-10-10-10-10-10-10-10-10-10-10-10-10-10-10-|-8---7S==3-||----|


BREAKDOWN

  Gtrs I, II
  E E E E E   E E  E E  E E  E E   E E E E E   E E E E E E E
|-----------|--------------------|-----------|---------------|
|-----------|--------------------|-----------|---------------|
|-----------|--------------------|-----------|---------------|
|-----------|--------------------|-----------|-4---------1---|
|-0-1-0-6-5-|--------------------|-0-1-0-6-5-|-4---------1-0-|
|-0-1-0-----|-0-0--0-0--0-0--0-0-|-0-1-0-----|-4-0-0-0-0-1-0-|


                                               TPTPTPTP
  E E E E E   E E  E E  E E  E E   E E E E E   E E E E
|-----------|--------------------|-----------|----------||
|-----------|--------------------|-----------|---------o||
|-----------|--------------------|-----------|----------||
|-----------|--------------------|-----------|----------||
|-0-1-0-6-5-|--------------------|-0-1-0-6-5-|-----3-4-o||
|-0-1-0-----|-0-0--0-0--0-0--0-0-|-0-1-0-----|-4-3------||



RIFF4

  Gtrs I, II
  E E E E E E E E  7x E  E E E E  E E  E  E  E E E E E   E  E E E E
|------------------||----------------------------------|--------------|
|-----------------o||----------------------------------|--------------|
|------------------||----------------------------------|--------------|
|------------------||----------------------------------|--------------|
|-----3-4---------o||-3--3-3-3-3--3-3--3--3--4-4-4-4-4-|-3--3-3-3-3---|
|-4-3-----4-6-1-4--||-3--3-3-3-3--3-3--3--3--4-4-4-4-4-|-3--3-3-3-3---|


  E E  E  E  E E E E  E
|-----------------------||----|
|-----------------------||----|
|-----------------------||----|
|---------------------0-||----|
|-3-3--3--3--4-4-4-4--0-||----|
|-3-3--3--3--4-4-4-4--0-||----|


OUTRO

  Gtr I
  E E E E E E E E   E E E E E E E E E
|-----------------|-------------------|
|-----------------|-------------------|
|-----------------|-------------------|
|-----------------|-------------------|
|---5-------6---5-|-----5-------6---5-|
|-0---0-1-0---0---|-0-0---0-1-0---0---|


  E E E E E E E E   E E E E  E E E E  E E E E
|-----------------|-----------------------------|
|-----------------|-----------------------------|
|-----------------|-----------------------------|
|-----------------|-----------------------------|
|---5-------6---5-|-----5h6------3h5------1h3---|
|-0---0-1-0---0---|-5h6------3h5------1h3-------|


  Gtr II
  E        E E        E        E E E E  E E E E  E E E E
|--------|----------|--------|----------------------------|
|--------|----------|--------|----------------------------|
|--------|----------|--------|----------------------------|
|-0------|-0-0------|-0------|----------------------------|
|-0------|-0-0------|-0------|-----5h6------3h5------1h3--|
|-0------|-0-0------|-0------|-5h6------3h5------1h3------|


  Gtrs I, II
  E E E E E E E E   E E E E E E E E E
|-----------------|-------------------|
|-----------------|-------------------|
|-----------------|-------------------|
|-----------------|-------------------|
|---5-------6---5-|-----5-------6---5-|
|-0---0-1-0---0---|-0-0---0-1-0---0---|


  E E E E E E E E   E E E E  E E E E E E E E
|-----------------|--------------------------|
|-----------------|--------------------------|
|-----------------|----------------------5h7-|
|-----------------|------------------5h7-----|
|---5-------6---5-|---5----------3h5---------|
|-0---0-1-0---0---|-0---0-1--3h5-------------|


  E E E E E E E E   E E E E E E E E E
|-----------------|-------------------|
|-----------------|-------------------|
|-----------------|-------------------|
|-----------------|-------------------|
|---5-------6---5-|-----5-------6---5-|
|-0---0-1-0---0---|-0-0---0-1-0---0---|


  E E E E E E E E   E E E E  E E E E E E E E
|-----------------|--------------------------|
|-----------------|--------------------------|
|-----------------|----------------------5h7-|
|-----------------|------------------5h7-----|
|---5-------6---5-|---5----------3h5---------|
|-0---0-1-0---0---|-0---0-1--3h5-------------|


  E E E E E E E E   E E E E E E E E E
|-----------------|-------------------|
|-----------------|-------------------|
|-----------------|-------------------|
|-----------------|-------------------|
|---5-------6---5-|-----5-------6---5-|
|-0---0-1-0---0---|-0-0---0-1-0---0---|


  E E E E E E E E   E E E E E E E E E E E E
|-----------------|--------------------------|
|-----------------|--------------------------|
|-----------------|--------------------------|
|-----------------|--------------------------|
|---5-------6---5-|-----5h6-----3h5-----1h3--|
|-0---0-1-0---0---|-5h6-----3h5-----1h3------|


ORDER:
INTRO
RIFF1+RIFF2
RIFF3
RIFF1
RIFF1+HARMONY
RIFF3(2X)
CHORUS
RIFF3
RIFF1
RIFF1+HARMONY
RIFF3(2X)
CHORUS
BREAKDOWN
RIFF4
INTRO
OUTRO
RIFF1

DOWNLOAD OBSTACLES FOR FREE AT www.octobercrisis.bandcamp.com

comments
We did not receive enough feedback on this tab! Please rate:
print report bad tab
1 2 3 4 5
I want to post or [tab]
guest
You may want to rate the tab now too:
select rating
Please do not post tabs as comments. Select "correction" instead!