Oops, an error
Loading. Please wait.

12 Days Of Rain Tab

version 1
version 1

Whole song

Interactive

2,279 views 3 this week
2 commentsread comments
1 2 3 4 5
x 3
add to favorites
launch autoscroll
font size
0
reset
how to read this tab
guitar tuner
Autoscroll
slow
fast
+/-
esc
set tempo
stop
Help us to improve Ultimate-Guitar.com Take our survey!
×
Author
Tuning
D G C F A D
Band:   OCTOBER TIDE
Album:  Rain Without End
Song:   12 Days of Rain

Tuning: 1 step down (D)
Keys:
 / \ - slide
  h  - hammer on
  p  - pull off
 ___ - palm mute


INTRO: (use Gtr 2 timing)

|------|
|------|
|------|
|-7----|
|-5----|
|-5----|

(Gtr 1)
|-------------------------------------------------------------------|
|-------------3---------------------------------3-------------------|
|-------------2-----5--4--2---------------------2-----5--4----------|
|-2-----------0-----5--4--2---------2-----------0-----5--4--2-------|
|-2-----------0-----3--2--0---------2-----------0-----3--2--2-------|
|-0---------------------------------0-----------------------0-------|

(Gtr 2)
|-------------------------------------------------------------------|
|---------------------------1----1----------------------------------|
|-------------------------------------------------------------------|
|-9\7-7~--7\4-4~----5--0--2----2----9\7-7~--7\4-4~----5--0----------|
|-----------------------------------------------------------7h10----|
|-----------------------------------------------------------7-------| 3x

(Gtr 1)
|-----------------------------------------------------------|
|-------------3---------------------------------3-----------|
|-------------2-----5--4--2---------------------2-----5--4--|
|-2-----------0-----5--4--2---------2-----------0-----5--4--|
|-2-----------0-----3--2--0---------2-----------0-----3--2--|
|-0---------------------------------0-----------------------|

(Gtr 2)
|-----------------------------------------------------------|
|---------------------------1----1--------------------------|
|-----------------------------------------------------------|
|-9\7-7~--7\4-4~----5--0--2----2----9\7-7~--7\4-4~----5--0--|
|-----------------------------------------------------------|
|-----------------------------------------------------------|


FILL:

|-------------------------------------|
|-------------------------------------|
|-------------------------------------|
|-2----2-2----2----2h5----2----2-2----|
|-2----2-2----2----2------2----2-2----|
|-0----0-0----0----0------0----0-0----|


RIFF Aa:

|-----------------------------------------------------------------------------|
|-5-3h5p3------------------------------------------------3--------------------|
|---------4-5---5-----------2/4-4\-5---5---5-----0-----2---2------------------|
|-----------2---2---2--------------5---5---5---5---5-0-------2---2---2--2-2---|
|-----------0---0---0--0-0---------3---3---3-3---------------2---2---2--2-2---|
|----------------------------------3---3---3-----------------0---0---0--0-0---|
                                             _                              2x

|------------------------------------------------------------|
|-5-3h5p3------------------------------------------------3---|
|---------4-5---5-----------2/4-4\-5---5---5-----0-----2---2-|
|-----------2---2---2--------------5---5---5---5---5-0-------|
|-----------0---0---0--0-0---------3---3---3-3---------------|
|----------------------------------3---3---3-----------------|
                                             _


RIFF Ba:
(clean)                                    (dist)
|------------------------------------|     |---------------------|
|------------------------------------|     |---------------------|
|-------------0------------------0---|     |---------------------|
|-----4-----5---5-------9------9---9-|     |-2-------------------|
|---2---2-3-------3/7-----7-10-------|     |-2-------------------|
|-0-------------------0--------------| 6x  |-0-------------------|


RIFF C:
(Gtr 1)
|-0h3h5p0h3h5p3h5-|     |----------------|
|-----------------|     |-0h3h5p03h5p3h5-|
|-----------------|     |----------------|
|-----------------|     |----------------|
|-----------------|     |----------------|
|-----------------| 4x  |----------------| 4x

(Gtr 2)
|-0h10h12p0h10/12h15/17-|     |-----------------------|
|-----------------------|     |-0h10h12p0h10/12h15/17-|
|-----------------------|     |-----------------------|
|-----------------------|     |-----------------------|
|-----------------------|     |-----------------------|
|-----------------------| 4x  |-----------------------| 4x

play 3x total


RIFF Ab:

|-----------------------------------------------------------------------------|
|------------------5-3h5p3------------------------------------------------3---|
|--------------------------4-5---5-----------2/4-4\-5---5---5-----0-----2---2-|
|-2---2---2--2-2-------------2---2---2--------------5---5---5---5---5-0-------|
|-2---2---2--2-2-------------0---0---0--0-0---------3---3---3-3---------------|
|-0---0---0--0-0------------------------------------3---3---3-----------------|
                                                              _             3x


RIFF Bb:
(clean)
|------------------------------------|
|------------------------------------|
|-------------0------------------0---|
|-----4-----5---5-------9------9---9-|
|---2---2-3-------3/7-----7-10-------|
|-0-------------------0--------------| 4x


RIFF D:
(Gtr 1)
|---------------------------------------5-----------|
|---------------------------------------------------|
|---------4~----------------------4~----------------|
|-------5-------7----5----------5--------------4----|
|---0-2---------5----3------0-2--------------2---2--|
|-0-----------------------0-------------------------|

(Gtr 2)
|-----------------------------------------------------------|
|---------------11-10--------------------------10----8\7-7--|
|---------------------11/12~--------------------------------|
|----------9~----------------------------9~-----------------|
|-------10----------------------------10--------------------|
|-0-5-7-------------------------0-5-7-----------------------| 4x


RIFF E:

|------0---------4---------0---------------|
|------0---------4---------0---------------|
|------------------------------------------|
|-2---------6---------2---------6----10----|
|-2---------6---------2---------6----10----|
|-0---------4---------0---------4-----8----| 4x


RIFF C - 2x


FILL:

|------------------------------------------------------------------|
|------------------------------------------------------------------|
|------------------------------------------------------------------|
|-2----------------------------------------------------------------|
|-2------------2-2-2-2-2-2--2-2-2-2-2-2--2-2-2-2-2-2--2-2-2-2-2-2--|
|-0------------0-0-0-0-0-0--0-0-0-0-0-0--0-0-0-0-0-0--0-0-0-0-0-0--|


Outro:

|------------------------------------------------------------------------------|
|------------------------------------------------------------------------------|
|------------------------------------------------------------------------------|
|------------------------------------------------------------------------------|
|-2-2-2-2-2-2--2-2-2-2-2-2--2-2-2-2-2-2--7-7-5-5-3-3--3-3-3-3-3-3--3-3-3-3-3-3-|
|-0-0-0-0-0-0--0-0-0-0-0-0--0-0-0-0-0-0---------------5-5-5-5-5-5--5-5-5-5-5-5-|

 -----------------------------------------------------------------------------|
 -----------------------------------------------------------------------------|
 -----------------------------------------------------------------------------|
 ---------------------------2-2-2-2-2-2--2-2-2-2-2-2--5\4-4-4\2---------------|
 -3-3-3-3-3-3--0h2-2-2h3-3--3-3-3-3-3-3--3-3-3-3-3-3--3\2-2-2\0-5-5\4-4-4/5-5-|
 -5-5-5-5-5-5---------------------------------------------------3-3\2-2-2/3-3-|
Suggest correction
Give kudos to tab author, rate the tab!
1 2 3 4 5
comments
print report bad tab
2 comments total.
0 reply
CapnKickass 205 Oct 07, 2012 12:22 AM

thanks for this tab man, you're awesome.

0 reply
CapnKickass 205 Oct 01, 2013 05:46 PM

Goood tab! I think a couple notes might be a little different in riff D.

guest
You may want to rate the tab now too:
select rating
Wanna post a correction for this tab? Suggest correction