Oops, an error
Loading. Please wait.

Bugs Tab

10 views 1 this week
no commentswrite comment
1 2 3 4 5
3 more votes to show rating
add to favorites
launch autoscroll
font size
0
reset
how to read this tab
guitar tuner
Autoscroll
slow
fast
+/-
esc
set tempo
stop
Help us to improve Ultimate-Guitar.com Take our survey!
×
Author
Difficulty
Capo
intermediate
3rd fret
This is my first tab! This sounds pretty correct to me but I'm not 100% sure in parts


[Intro]
 
e|----------------------3---------------0---------------0---------|
B|------0-------0---------------0---------------1---------------0-|
G|--0-------0-------0-------0-------0-------0-------0-------0-----|
D|----2-----------------------0-------2-------2---------------2---|
A|------------2-------2-----------3-------3-----------2-----------|
E|0-------0-------3-------3-----------------------0-------0-------|(x2)


[Verse]

e|----------------------3---------------0---------------0---------|
B|------0-------0---------------0---------------1---------------0-|
G|--0-------0-------0-------0-------0-------0-------0-------0-----|
D|----2-----------------------0-------2-------2---------------2---|
A|------------2-------2-----------3-------3-----------2-----------|
E|0-------0-------3-------3-----------------------0-------0-------|(x4)


[Chorus]

e|------0------------------------------3--------------------------|
B|-------------1-------0-------0---------------0-------0-------0--|
G|--0------0-------0-------0-------0-------0-------0-------0------|
D|----2------2-------2-----------------------0-------2------------|
A|3------3-------------------2-------2-----------------------2----|
E|---------------0-------0-------3-------3-------0-------0--------|(x2)
Suggest correction
Give kudos to tab author, rate the tab!
1 2 3 4 5
comments
print report bad tab
guest
You may want to rate the tab now too:
select rating
Wanna post a correction for this tab? Suggest correction