Oops, an error
Loading. Please wait.

Novembre Tab

256 views 21 this week
no commentswrite comment
1 2 3 4 5
2 more votes to show rating
add to favorites
launch autoscroll
font size
0
reset
how to read this tab
guitar tuner
Autoscroll
slow
fast
+/-
esc
set tempo
stop
Help us to improve Ultimate-Guitar.com Take our survey!
×
Author
Difficulty
intermediate
Novembre - Odezenne 


[Intro/Verse] 

e|---------------------------------------------------------------------------------|
B|---------------------------------------------------------------------------------|
G|-------9---------10----9-----8------------------12--------14-----9-----8---------|
D|-------10--------------------10-----------------13--------15-----10----10--------|
A|----10----10-----10----10----10-----------------13--------15-----10----10--------|
E|--8--------------8-----8-----8-----------8--/11-------13---------8-----8---------|

e|---------------------------------------------------------------------------------|
B|-------------------------13----------9-------------------------------------------|
G|-----------12------------13----------10-------------9----------------------------|
D|-----------13---------13----------10----------------10---------------------------|
A|--------13----13---11--------11-8---------------10-------------------------------|
E|--8/11----------------------------------------8----------------------------------|

C'est avec les ambitions qu'on attrape le financier
Avec les munitions que dérape le policier
C'est une condition de devoir nous laisser vivre
La foule en érection, est déjà, bien ivre
En réanimation dans des lits noirs et blancs
Ne tire aucune leçon de nos arracheurs de dents
Ils crachent comme des cons sur le pavé des enfants
Les cigarettes s'allument à l'annonce de leur treize ans
C'est juste une épaisse brume de plus dans l'présent
Un grumeau qui se glisse dans un liquide charmant
Un cuni bien triste dans une belle au bois dormant
Des poils qui s'hérissent sur un bras bien coiffé
Une pulpeuse nourrice dans un pavillon parfait
On vie, on s'aime, à travers nos écrans
On cache, on garde nos envies dans des écrins
Il y a des yeux qui débordent, des vieux qui te bordent
Des haches qui se dressent, des tresses qui se lient
La détresse est visible elle se couche dans nos lits


[Bridge]

Guitar 2 (1:07)- (1:24) 

e|--------------------------------------------------------------------------------|
B|--------------8----------------10-8---------------------------------------------|
G|---------7-8----10-7---7-9-10-------8-------------------------------------------|
D|------10------------------------------------------------------------------------|
A|--------------------------------------------------------------------------------|
E|--------------------------------------------------------------------------------|

Guitar 1 (1:07) - (1:25) 

e|--------------------------------------------------------------------------------|
B|-------------------------------------------6------------------------------------|
G|-------8-------------12---------7----------7----------5-------------------------|
D|-------10------------13---------8-------7-------------6-------------------------|
A|----10-----------13-----------8------5-------------6----------------------------|
E|--8----------11------------6--------------------4-------------------------------|


Un matin de novembre nargué par un suçon
Ils ont repris la vie de n'importe quelle façon
De l'accumulation, nait la révolution
Une étincelle brille entre deux explosions
Réveille les instincts de tes morbides pulsions
Les gens bienpensants vont quitter leurs fonctions


[Verse]

e|---------------------------------------------------------------------------------|
B|---------------------------------------------------------------------------------|
G|-------9---------10----9-----8------------------12--------14-----9-----8---------|
D|-------10--------------------10-----------------13--------15-----10----10--------|
A|----10----10-----10----10----10-----------------13--------15-----10----10--------|
E|--8--------------8-----8-----8-----------8--/11-------13---------8-----8---------|

e|---------------------------------------------------------------------------------|
B|-------------------------13----------9-------------------------------------------|
G|-----------12------------13----------10-------------9----------------------------|
D|-----------13---------13----------10----------------10---------------------------|
A|--------13----13---11--------11-8---------------10-------------------------------|
E|--8/11----------------------------------------8----------------------------------|

Notre armée triomphante est rentrée dans Paris
Pénètre dans cette fente aux lèvres déjà meurtries
Un viol quand tu rentres dans une foule asservie
Brûler ces H&M et leur douze collections
Du haut des HLM certains n'ont qu'une saison
Ça chuchote en coulisse et l'élève entend des sons
Les mômes s'établissent un nouveau dessein
Ça barbote dans l'abysse de nos belles tâches de sang


[Outro] 

Guitar 2 (1:07)- (1:24) 
e|--------------------------------------------------------------------------------|
B|--------------8----------------10-8---------------------------------------------|
G|---------7-8----10-7---7-9-10-------8-------------------------------------------|
D|------10------------------------------------------------------------------------|
A|--------------------------------------------------------------------------------|
E|--------------------------------------------------------------------------------|


Guitar 1 (1:07) - (1:25) 
e|--------------------------------------------------------------------------------|
B|-------------------------------------------6------------------------------------|
G|-------8-------------12---------7----------7----------5-------------------------|
D|-------10------------13---------8-------7-------------6-------------------------|
A|----10-----------13-----------8------5-------------6----------------------------|
E|--8----------11------------6--------------------4-------------------------------|



************************************

| /  Slide up

************************************
Suggest correction
Give kudos to tab author, rate the tab!
1 2 3 4 5
comments
print report bad tab
guest
You may want to rate the tab now too:
select rating
Wanna post a correction for this tab? Suggest correction