Oops, an error
Loading. Please wait.

Americans Dreams Tab

5 views 1 this week
no commentswrite comment
1 2 3 4 5
3 more votes to show rating
add to favorites
launch autoscroll
font size
0
reset
how to read this tab
guitar tuner
Autoscroll
slow
fast
+/-
esc
set tempo
stop
Help us to improve Ultimate-Guitar.com Take our survey!
×
INTRO:
E|-----------------------------------------|
B|-----------------------------------------|
G|-----5~~-----5~~------55555555-444444-33-|
D|-777-5~~-777-5~~-7777-55555555-444444-33-|
A|-777-3~~-777-3~~-7777-33333333-222222-11-|
E|-555-----555-----5555--------------------|

E|----------------------|
B|----------------------|
G|-----5~~-----5~~------|
D|-777-5~~-777-5~~-7777-|
A|-777-3~~-777-3~~-7777-|
E|-555-----555-----5555-|

C5            B5             A#5    A5 C5   A5 C5
Yo no creo en el sueño americano
C5            B5             A#5
por la malficion del garabato
A5 C5   A5 C5     C5        B5      A#5
Bataglia, Gareca, Falcioni no pudieron
A5 C5   A5 C5     C5        B5      A#5
Cabañas, Gareca, Falcioni no pudieron

E|----------------------|
B|----------------------|
G|-----5~~-----5~~------|
D|-777-5~~-777-5~~-7777-|
A|-777-3~~-777-3~~-7777-|
E|-555-----555-----5555-|

C5            B5             A#5    A5 C5   A5 C5
Yo no creo en el sueño americano
C5            B5             A#5    A5 C5   A5 C5
por la malficion del garabato
C5            B5             A#5    A5 C5   A5 C5
Yo no creo en el sueño americano
C5            B5             A#5    A5 C5   A5 C5
por la malficion del garabato

E|----------------------------------|
B|----------------------------------|
G|-777--777--777--77-10101010101010-|
D|-777--777--777--77-10101010101010-|
A|-555--555--555--55-8-8-8-8-8-8-8--|
E|----------------------------------|

 F5             D5
Nunca campeones
 F5                D5
de la libertadores
 F5             D5
Nunca campeones
 F5
de la libertadores

RIFF 1

E|----------------------|
B|----------------------|
G|-----5~~-----5~~------|
D|-777-5~~-777-5~~-7777-|
A|-777-3~~-777-3~~-7777-|
E|-555-----555-----5555-|

C5            B5             A#5    A5 C5   A5 C5
Yo no creo en el sueño americano
C5            B5             A#5
por la malficion del garabato

E|---------------------------------------|
B|---------------------------------------|
G|-55555555-444444-33-55555555-444444-33-|
D|-55555555-444444-33-55555555-444444-33-| X2
A|-33333333-222222-11-33333333-222222-11-|
E|---------------------------------------|

C5            B5          A#5
Yo prefiero jugar con celadores
C5            B5          A#5
Yo prefiero jugar con celadores
C5            B5          A#5
Yo prefiero jugar con celadores
C5
Yo prefiero jugar con celadores


ACORDES:
E|----X----X----X----X----X-----X-----| ~ = let ring
B|----X----X----X----X----X-----X-----| f = full
G|----X----5----4----3----7-----10----|
D|----7----5----4----3----7-----10----|
A|----7----3----2----1----5-----8-----|
E|----5----X----X----X----X-----X-----|
      A5   C5   B5  A#5   D5    F5

RIFF 1:
(ESTE PUNTEO ACOMPAÑA AL VERSO ADEMAS DE LOS ACORDES)
E|-444-6--444-6--444-6-444-66666666-|-11f-|
B|----------------------------------|-----|
G|-----------------------X3---------|-----|
D|----------------------------------|-----|
A|----------------------------------|-----|
E|----------------------------------|-----|

DUDAS, CORRECCIONES O MAS CANCIONES DE ODIO A BOTERO
AL CORREO ROCKANDRES182@
Suggest correction
Give kudos to tab author, rate the tab!
1 2 3 4 5
comments
print report bad tab
guest
You may want to rate the tab now too:
select rating
Wanna post a correction for this tab? Suggest correction