Oops, an error
Loading. Please wait.

Cuchi-Cunchi Tab

9 views 1 this week
no commentswrite comment
1 2 3 4 5
3 more votes to show rating
add to favorites
launch autoscroll
font size
0
reset
how to read this tab
guitar tuner
Autoscroll
slow
fast
+/-
esc
set tempo
stop
Help us to improve Ultimate-Guitar.com Take our survey!
×
INTRO I:
G|-------------------------------------| X2
D|-------------------------------------|
A|-33333333----------------------------|
E|----------55555555-33333333-55555555-|

INTRO II:
E|------------------|--------------------|
B|------------------|--------------------|
G|---7--77-5-7------|---7777777-9999999--|
D|-7-7--77-5-7------|-7-7777777-9999999--| X2
A|-7-5--55-3-5--X3--|-7-5555555-7777777--|
E|-5----------------|-5------------------|

A5    C5 D5    A5    C5 D5
No me diga mijito por favor
A5    C5 D5         D5 E5
No me diga mijito
A5    C5 D5    A5    C5 D5
No me diga mijito por favor
A5    C5 D5         D5 E5
No me diga mijito
A5    C5 D5    A5    C5 D5
No me diga mijito
A5    C5 D5         D5 E5
que estoy jugando con Jorge pequeño
A5   C5 D5    A5
No me diga mijito
C5 D5    A5   C5 D5         D5 E5
que los enanos invisibes siguen hay


CORO:
C5          A5     G5          A5
Llameme mozquita, llameme mozquita
C5          A5     G5         A5
Llameme mozquita, llame mozquita
C5          A5     G5          A5
Llameme mozquita, llameme mozquita
C5          A5     G5         A5
Llameme mozquita, llame mozquita

INTRO II:
E|------------------|--------------------|
B|------------------|--------------------|
G|---7--77-5-7------|---7777777-9999999--|
D|-7-7--77-5-7------|-7-7777777-9999999--| X2
A|-7-5--55-3-5--X3--|-7-5555555-7777777--|
E|-5----------------|-5------------------|

A5   C5 D5   A5  C5 D5
Si me dice mijito
A5   C5 D5       D5 E5
yo le digo papito
A5   C5 D5   A5  C5 D5
Si me dice mijito
A5   C5 D5       D5 E5
yo le digo papito
A5    C5 D5    A5    C5 D5
No me diga mijito
A5    C5 D5         D5 E5
que estoy jugando con Jorge pequeño
A5   C5 D5    A5
No me diga mijito
C5 D5    A5   C5 D5         D5 E5
que los enanos invisibes siguen hay


CORO:
C5         A5     G5          A5
Llameme mozquita, llameme mozquita
C5         A5     G5         A5
Llameme mozquita, llame mozquita
C5         A5     G5          A5
Llameme mozquita, llameme mozquita
C5         A5     G5         A5
Llameme mozquita, llame mozquita

BREAK:
E|-------------------------------|
B|-------------------------------|
G|-5~~----5~~----5~~-5--5-5-5-5--|
D|-5~~----5~~----5~~-5--5-5-5-5--|
A|-3~~----3~~----3~~-3--3-3-3-3--|
E|-------------------------------|

FINAL: Cuchi cunchi,Cuchi cunchi, Cuchi cunchi, Cuchi cunchi
E|---------------------------------------------------------|
B|---------------------------------------------------------|
G|-X5-X-5-X5-X5--X5-X-5-X5-X5--X5-X-5-X5-X5--X5-X-5-X5-X5--|
D|-X5-X-5-X5-X5--X5-X-5-X5-X5--X5-X-5-X5-X5--X5-X-5-X5-X5--| X8
A|-X3-X-3-X3-X3--X3-X-3-X3-X3--X3-X-3-X3-X3--X3-X-3-X3-X3--|
E|---------------------------------------------------------|

E|---------------------------------------------------------|
B|---------------------------------------------------------|
G|-X7-X-7-X7-X7--X7-X-7-X7-X7--X7-X-7-X7-X7--X7-X-7-X7-X7--|
D|-X7-X-7-X7-X7--X7-X-7-X7-X7--X7-X-7-X7-X7--X7-X-7-X7-X7--| X4
A|-X5-X-5-X5-X5--X5-X-5-X5-X5--X5-X-5-X5-X5--X5-X-5-X5-X5--|
E|---------------------------------------------------------|

E|---------------------------------------------------------|
B|---------------------------------------------------------|
G|-X5-X-5-X5-X5--X5-X-5-X5-X5--X5-X-5-X5-X5--X5-X-5-X5-X5--|
D|-X5-X-5-X5-X5--X5-X-5-X5-X5--X5-X-5-X5-X5--X5-X-5-X5-X5--| X4
A|-X3-X-3-X3-X3--X3-X-3-X3-X3--X3-X-3-X3-X3--X3-X-3-X3-X3--|
E|---------------------------------------------------------|

ACORDES:
E|----X----X----X----X----X----|
B|----X----X----X----X----X----|
G|----7----X----X----9----5----|
D|----7----5----7----9----5----|
A|----5----5----7----7----3----|
E|----X----3----5----X----X----|
      D5   G5   A5   E5   C5
Suggest correction
Give kudos to tab author, rate the tab!
1 2 3 4 5
comments
print report bad tab
guest
You may want to rate the tab now too:
select rating
Wanna post a correction for this tab? Suggest correction