Oops, an error
Loading. Please wait.

Dinero Tab

11 views 1 this week
no commentswrite comment
1 2 3 4 5
3 more votes to show rating
add to favorites
×
Save as Personal and add changes to this tab that will be seen only by you. Learn more ›
×
You can save this tab as Personal to edit and correct it or add notes. All changes will be seen only by you. Learn more »
save as personal
new!
launch autoscroll
font size
0
reset
how to read this tab
guitar tuner
Autoscroll
slow
fast
+/-
esc
set tempo
stop
INTRO:
1-----------------------------------------
2-----------------------------------------
3-----------------------------------------      X4  riff 1
4-----------------------------------------
5----------------------4-4-3-3-2-2-2-2-2--
6--2-3-3-3-2-3-3-3-2-2--------------------
-----------------PM------------------------


1-----------------------------------------
2-----------------------------------------
3----------------------6-6-5-5-4-4-4-4----
4--4-5-5-5-4-5-5-5-4-4-6-6-5-5-4-4-4-4----     riff 2
5--4-5-5-5-4-5-5-5-4-4-4-4-3-3-2-2-2-2----
6--2-3-3-3-2-3-3-3-2-2--------------------
   F#   G  F#  G    F#   C#  C   B


F#  G     F#   G         F#   C#    C     B
caminando por las calles sin saber a donde voy
F#  G         F#   G         F#   C#    C     B
sin angustias ni problemas libre del sistema estoy
F#  G     F#   G         F#   C#    C     B
el sistema nos alienta y nos quiere consumir
F#  G         F#   G       F#   C#    C     B
con promesas, con dinero y ambicion nos llegará

CORO
1-----------------------------
2-----------------------------
3-----------------------------
4--6-6-5-5-4-4-4-4-6-6-5-5-4--    RIFF 3
5--6-6-5-5-4-4-4-4-6-6-5-5-4--
6--4-4-3-3-2-2-2-2-4-4-3-3-2--
    C#   C  B       C#  C   B
         riff 3
dinero
          riff 3
angustias
           riff 3
dinero
           riff 3
problemas
           riff 3
dinero

sistemaaaaa

riff 2.

riff 1 -toda la estrofa
Nuestro dios es el dinero
y sin él el hambre está,
toca que antes te asesinen sin poderlo disfrutar
lo deseas, lo acaricias y por él la vida das
el sistema lo ha creado
y tú lo conservarás


         riff 3
dinero
          riff 3
angustias
           riff 3
dinero
           riff 3
problemas
           riff 3
dinero
                           X2  tocandola un poco mas lenta esta
sistema                        parte

FINAL

1-----------------------------------------
2-----------------------------------------
3-----------------------------------------
4--4-5-5-5-4-5-5-5-4-4-5-5-5-5-5----------
5--4-5-5-5-4-5-5-5-4-4-5-5-5-5-5----------
6--2-3-3-3-2-3-3-3-2-2-3-3-3-3-3----------
Suggest correction
Give kudos to tab author, rate the tab!
1 2 3 4 5
comments
print report bad tab
guest
Wanna post a correction for this tab? Suggest correction