Oops, an error
Loading. Please wait.

Fuck You Tab

14 views 1 this week
no commentswrite comment
1 2 3 4 5
3 more votes to show rating
add to favorites
launch autoscroll
font size
0
reset
how to read this tab
guitar tuner
Autoscroll
slow
fast
+/-
esc
set tempo
stop
Help us to improve Ultimate-Guitar.com Take our survey!
×
INTRO:
E|-----------------------------------------------------|
B|-----------------------------------------------------|
G|-44-444-9-7--44-444-9-7--44-444-9-7--11111111-55555--|
D|-44-444-9-7--44-444-9-7--44-444-9-7--11111111-55555--|
A|-22-222-7-5--22-222-7-5--22-222-7-5--9-9-9-9--33333--|
E|-----------------------------------------------------|

B5           E5 D5
Dejen
B5           E5 D5
que lOs gringos
B5           E5 D5
se apoderen del mundo
F#5          C5
si igual el mundo es una mierda

INTERMEDIO:
E|----------------------------|
B|----------------------------|
G|-44--44--44--44--44--44--4--|
D|-44--44--44--44--44--44--4--|
A|-22--22--22--22--22--22--2--|
E|----------------------------|

B5           E5 D5
Dejen
B5           E5 D5
que lOs gringos
B5           E5 D5
se apoderen del mundo
F#5          C5
si igual el mundo es una mierda

INTERMEDIO:
E|-------------------------------------|
B|-------------------------------------|
G|-44--44--44--44--44--44--44--44XX44--|
D|-44--44--44--44--44--44--44--44XX44--|
A|-22--22--22--22--22--22--22--22XX22--|
E|-------------------------------------|

E|----------------------------|
B|----------------------------|
G|-44--44--44--44--44--44--4--|
D|-44--44--44--44--44--44--4--|
A|-22--22--22--22--22--22--2--|
E|----------------------------|

B5       E5 D5
Fuck you
B5       E5 D5
Fuck you
B5       E5 D5
Fuck you
F#5      C5
Fuck you
B5
Fuck

E|----X----X----X----X----11---|
B|----X----X----X----X----11---|
G|----4----5----7----9----11---|
D|----4----5----7----9----11---|
A|----2----3----5----7----9----|
E|----X----X----X----X----X----|
      B5   C5   D5   E5  F#5
Suggest correction
Give kudos to tab author, rate the tab!
1 2 3 4 5
comments
print report bad tab
guest
You may want to rate the tab now too:
select rating
Wanna post a correction for this tab? Suggest correction