Oops, an error
Loading. Please wait.

Kill The Cuentero Now Tab

14 views 1 this week
no commentswrite comment
1 2 3 4 5
3 more votes to show rating
add to favorites
launch autoscroll
font size
0
reset
how to read this tab
guitar tuner
×
Best way to learn
"Kill The Cuentero Now"
Autoscroll
slow
fast
+/-
esc
set tempo
stop
INTRO:
E|-------------------------------------------------|
B|-------------------------------------------------|
G|-------------------------------------------------|
D|-------------------------------------------------| X2
A|-----4----5-45-5-4-3-0-------4----5-050-5-4-3-0--|
E|-444---44----------------444---44----------------|

VERSO: "Holocausto nazi para cuenteros..."
E|-------------------------------------------------|
B|-------------------------------------------------|
G|-------------------------------------------------|
D|-------------------------------------------------| X4
A|-----4----5-45-5-4-3-0-------4----5-050-5-4-3-0--|
E|-444---44----------------444---44----------------|
   |---------------------pm----------------------|

CORO: "Kill the cuentero now..."
E|---------------------------|
B|---------------------------|
G|-------------66------------| X2
D|-6-6-66-66-6666-6-6-66-66--|
A|-6-6-66-66-6644-6-6-66-66--|
E|-4-4-44-44-44---4-4-44-44--|

INTRO:

VERSO:

CORO:

BREAK:" y resulto que un dia..."
E|----------------------------------------------------------------|
B|----------------------------------------------------------------|
G|-----6-------6-------6------6-----------------------8-------8---|
D|---6---6---6---6---6--6---6---6-----8-------8-----8---8---8---8-|
A|-4-------4-------4------4---------8---8---8---8-6-------6-------|
E|--------------------------------6-------6-----------------------|

E|--------------------------------------------------------------------|
B|--------------------------------------------------------------------|
G|-----6-------6-------6------6-----------------------8-------8-------|
D|---6---6---6---6---6--6---6---6-----8-------8-----8---8---8---8---8-|
A|-4-------4-------4------4---------8---8---8---8-6-------6-------6---|
E|--------------------------------6-------6---------------------------|

"Cuentero hijo de puta..."
E|---------------------------------|
B|---------------------------------|
G|-8-88---8--8--8--6-66---6--6--6--|
D|-88888888888888--66666666666666--|
A|-66666666666666--44444444444444--|
E|---------------------------------|
    *  *** ** **    *  *** ** **
BAJO:
G|-------------------------------------------------|
D|-------------------------------------------------| X2
A|-----4----5-45-5-4-3-0-------4----5-050-5-4-3-0--|
E|-444---44----------------444---44----------------|

FINAL:
E|----------------------------------------|
B|----------------------------------------|
G|----------------------------------------|
D|----------------------------------------| X4
A|-----5----4-04-5-7-------5----4-04-5-7--|
E|-444---44------------444---44-----------|
Suggest correction
Give kudos to tab author, rate the tab!
1 2 3 4 5
comments
print report bad tab
guest
You may want to rate the tab now too:
select rating
Wanna post a correction for this tab? Suggest correction