Oops, an error
Loading. Please wait.

No Importa Chords

44 views 1 this week
no commentswrite comment
1 2 3 4 5
3 more votes to show rating
add to favorites
launch autoscroll
font size
0
reset
transpose
0
reset
simplify chords
display chords
guitar tuner
Autoscroll
slow
fast
+/-
esc
set tempo
stop
Help us to improve Ultimate-Guitar.com Take our survey!
×
INTRO (Guitarra acustica)
E|----------------------------------------|
B|----------------------------------------|
G|-33-3333--5-55-5555--44-4444--7-77-7777-|
D|-33-3333--5-55-5555--44-4444--7-77-7777-| X3
A|-11-1111--3-33-3333--22-2222--5-55-5555-|
E|----------------------------------------|

E|-----------------------------------|
B|-----------------------------------|
G|-33-3333--5-55-5555--44-4444--7~~--|
D|-33-3333--5-55-5555--44-4444--7~~--|
A|-11-1111--3-33-3333--22-2222--5~~--|
E|-----------------------------------|

CORO:
D5     B5     A#5  C5
Y no me importa si el mundo esta mal
D5      B5    A#5   C5
si existen bombas o hay guerra nuclear
D5        B5         A#5    C5
si compran presidentes o roban un trillon
D5        B5     A#5    C5
igual en este mundo.... solo importo yo


VERSo:
D5~~
Yo tampoco mate a Galan

yo estaba en Soacha

pero comiendo una almojabana
D5         B5       A#5        C5
Si Hitler viviera yo estaria muerto
D5         B5       A#5        C5
Si Hitler viviera yo estaria yo estaria muerto

CORO:
D5     B5     A#5  C5
Y no me importa si el mundo esta mal
D5      B5    A#5   C5
si existen bombas o hay guerra nuclear
D5        B5         A#5    C5
si compran presidentes o roban un trillon
D5        B5     A#5    C5
igual en este mundo.... solo importo yo


VERSO:
D5~~
Al comienzo yo le di fuego al bing bang

me reportaron del mas alla

y di un gran paso por la humnidad
D5            B5
Yo estaba hay cuando todo acabo
A#5         C5
pude ver la destruccion
D5          B5
pero como dicen los que saben
A#5          C5
no importa y si importa no importa


CORO:
D5     B5     A#5  C5
Y no me importa si el mundo esta mal
D5      B5    A#5   C5
si existen bombas o hay guerra nuclear
D5        B5         A#5    C5
si compran presidentes o roban un trillon
D5        B5     A#5    C5
igual en este mundo.... solo importo yo

(Guitarra acustica):
E|----------------------------------------|
B|----------------------------------------|
G|-55-5555--5-55-5555--55-5555--5-55-5555-|
D|-55-5555--5-55-5555--55-5555--5-55-5555-|
A|-33-3333--3-33-3333--33-3333--3-33-3333-|
E|----------------------------------------|

C5
Cali es Cali lo demas no es Cali
C5
Cali es Cali lo demas no es Cali
B5
Cali es Cali lo demas no es Cali
C5
Cali es Cali lo demas no es Cali
C5
y no me importa si existen bombas
D5        B5         A#5    C5
si compran presidentes o roban un trillon
D5        B5     A#5    C5
igual en este mundo.... solo importo yo


CORO:
D5     B5     A#5  C5
Y no me importa si el mundo esta mal
D5      B5    A#5   C5
si existen bombas o hay guerra nuclear
D5        B5         A#5    C5
si compran presidentes o roban un trillon
D5        B5     A#5    C5                 D5
igual en este mundo.... solo importo yo

FINAL: Y no me importa si el mundo esta mal
G|-------------------------|
D|-------------------------|
A|-5----2----1----3-----5--|
E|-------------------------|

ACORDES:
E|----X----X----X----X----|
B|----X----X----X----X----|
G|----7----4----3----5----|
D|----7----4----3----5----|
A|----5----2----1----3----|
E|----X----X----X----X----|
      D5   B5  A#5   C5

VERSO:
E|------------------------------------|
B|------------------------------------|
G|------------------------------------|
D|------------------------------------|
A|-55555555-2222222-11111111-33333333-|
E|------------------------------------|
   |---------------pm----------------|

DUDAS, CORRECCIONES O MAS CANCIONES DE ODIO A BOTERO
AL CORREO ROCKANDRES182@
Suggest correction
Give kudos to tab author, rate the tab!
1 2 3 4 5
comments
print report bad tab
guest
You may want to rate the tab now too:
select rating
Wanna post a correction for this tab? Suggest correction