Oops, an error
Loading. Please wait.

Play Basquet With Pablo Picasso Tab

37 views 3 this week
no commentswrite comment
1 2 3 4 5
3 more votes to show rating
add to favorites
launch autoscroll
font size
0
reset
how to read this tab
guitar tuner
×
Best way to learn
"Play Basquet With Pablo Picasso"
Autoscroll
slow
fast
+/-
esc
set tempo
stop
INTRO:
E|------------------------|
B|------------------------|
G|------------------------|
D|------------------------|
A|-0-55--0-55--0-55--0-55-|
E|------------------------|

VERSO 1:
E|---------------------X8-|----|
B|------------------------|----|
G|---77----77----77----77-|-11-|
D|-7-77--7-77--7-77--7-77-|-11-|
A|-7-55--7-55--7-55--7-55-|-9--|
E|-5-----5-----5-----5----|----|

A5 D5    A5 D5
Estaba caminando
A5 D5    A5 D5
por el barrio
A5 D5      A5 D5
y habia un viejito
A5 D5  A5 D5
jugando basket
A5 D5  A5 D5
yo mire bien
A5 D5  A5 D5
y ese viejito
A5 D5  A5 D5
ese viejito
A5 D5     A5 D5
era Pablo Picasso

CORO:                   Play                basket
E|-----------------------------------------------|
B|-----------------------------------------------|
G|------77777-------55555------77777-------77-55-|
D|-7777-77777-55555-55555-7777-77777-55555-77-55-|
A|-7777-55555-55555-33333-7777-55555-55555-55-33-|
E|-5555-------33333-------5555-------33333-------|

                        With                Pblo Picasso
E|-----------------------------------------------|
B|-----------------------------------------------|
G|------77777-------55555------77777-------77-55-|
D|-7777-77777-55555-55555-7777-77777-55555-77-55-|
A|-7777-55555-55555-33333-7777-55555-55555-55-33-|
E|-5555-------33333-------5555-------33333-------|

VERSO 1:
E|---------------------X8-|----|
B|------------------------|----|
G|---77----77----77----77-|-11-|
D|-7-77--7-77--7-77--7-77-|-11-|
A|-7-55--7-55--7-55--7-55-|-9--|
E|-5-----5-----5-----5----|----|


A5 D5    A5 D5
Estaba caminando
A5 D5    A5 D5
por el barrio
A5 D5      A5 D5
y habia un viejito
A5 D5  A5 D5
jugando basket
A5 D5  A5 D5
yo mire bien
A5 D5  A5 D5
y ese viejito
A5 D5  A5 D5
ese viejito
A5 D5     A5 D5
era Pablo Picasso


CORO:                   Play                basket
E|-----------------------------------------------|
B|-----------------------------------------------|
G|------77777-------55555------77777-------77-55-|
D|-7777-77777-55555-55555-7777-77777-55555-77-55-|
A|-7777-55555-55555-33333-7777-55555-55555-55-33-|
E|-5555-------33333-------5555-------33333-------|

                        With                Pblo Picasso
E|-----------------------------------------------|
B|-----------------------------------------------|
G|------77777-------55555------77777-------77-55-|
D|-7777-77777-55555-55555-7777-77777-55555-77-55-|
A|-7777-55555-55555-33333-7777-55555-55555-55-33-|
E|-5555-------33333-------5555-------33333-------|

VERSO 2:
G|------------------------|
D|------------------------| x8
A|-0-55--0-55--0-55--0-55-|
E|------------------------|

Pablo Picasso nunca murio
Pablo Picasso merecio la muerte
Pablo Picasso juega con niños
despues de haber jugando con Satanaz

CORO:                   Play                basket
E|-----------------------------------------------|
B|-----------------------------------------------|
G|------77777-------55555------77777-------77-55-|
D|-7777-77777-55555-55555-7777-77777-55555-77-55-|
A|-7777-55555-55555-33333-7777-55555-55555-55-33-|
E|-5555-------33333-------5555-------33333-------|

                        With                Pblo Picasso
E|--------------------------------------------------|
B|--------------------------------------------------|
G|------77777-------55555------77777-------77-55--7-|
D|-7777-77777-55555-55555-7777-77777-55555-77-55--7-|
A|-7777-55555-55555-33333-7777-55555-55555-55-33--5-|
E|-5555-------33333-------5555-------33333----------|

Al fianl se escucha este punteo
E|--------------------------------------------5-|
B|-5555555555555555-5-7-5-7-5-7-5-7-555555555-5-|
G|----------------------------------------------|
D|----------------------------------------------|
A|----------------------------------------------|
E|----------------------------------------------|
Suggest correction
Give kudos to tab author, rate the tab!
1 2 3 4 5
comments
print report bad tab
guest
You may want to rate the tab now too:
select rating
Wanna post a correction for this tab? Suggest correction