Oops, an error
Loading. Please wait.

Rumba Tab

129 views 3 this week
no commentswrite comment
1 2 3 4 5
3 more votes to show rating
add to favorites
launch autoscroll
font size
0
reset
how to read this tab
guitar tuner
Autoscroll
slow
fast
+/-
esc
set tempo
stop
Help us to improve Ultimate-Guitar.com Take our survey!
×
INTRO: BAJO
G|--------------------------------|
D|---------------------------x8---|
A|--------------------------------|
E|-0-0-0-0-1-0--0-0-0-0-1-0-------|

(PICK SILIDE)

Verso:
A|------X-X-------X-X-------X-X------X-X-|
B|------X-X-------X-X-------X-X------X-X-|
G|------X-X-------X-X-------X-X------X-X-|
D|-3-3--X-X--3-3--X-X--3-3--X-X--3-3-X-X-| X6
A|-3-3--X-X--3-3--X-X--3-3--X-X--3-3-X-X-|
E|-1-0--X-X--1-0--X-X--1-0--X-X--1-0-X-X-|

F5 E5          F5 E5
Cuando escucho escucho escuchocho
F5 E5          F5 E5
Que la rumba me llama me llamama
F5 E5          F5 E5
De la cama de un salto me levanto
F5 E5          F5 E5
Y mis jeanes hardcoreros yo los plancho

F5 E5          F5 E5
Porque quiero que quiero es pogear
F5 E5          F5 E5
Porque quiero que quiero es pegar
F5 E5          F5 E5
Levantarme a un chico hardcorero
F5 E5          F5 E5
En un pogo de odio a botero

Coro:
R.U.M.B.A. yo no me llamo rumba yo no me llamo rumba
A|-------------------------------------|
B|-------------------------------------|
G|-------------------------------------|
D|-3-3-3-3-3-3-3-3--3-3-3-3--3-3-3-3---|
A|-3-3-3-3-3-3-3-3--3-3-3-3--3-3-3-3---|
E|-1-0-1-0-1-0-1-0--1-1-1-0--1-1-1-0---|

R.U.M.B.A. la rumba me llama
A|----------------------------------------------------|
B|----------------------------------------------------|
G|----------------------------------------------------|
D|-3-3-3-3-3-3-3-3--3-3-3-3--3-3-3-3-3-3-3-3-3-3-3-3--|
A|-3-3-3-3-3-3-3-3--3-3-3-3--3-3-3-3-3-3-3-3-3-3-3-3--|
E|-1-0-1-0-1-0-1-0--1-1-1-0--1-1-1-0-1-0-1-0-1-0-1-0--|

FINAL:
A|--------------------------------|-----|
B|---------------------------X2---|-----|
G|--------------------------------|-----|
D|-3-3-----3-3-----3-3-----3-3----|-3-3-|
A|-3-3--5--3-3--3--3-3--2--3-3----|-3-3-|
E|-1-0-----1-0-----1-0-----1-0----|-1-0-|


SENCILA PERO SOYADA 100%.................
.........................................
.........................................
DUDAS O COMENTARIOS AL CORREO
ROCKANDRES182@
Suggest correction
Give kudos to tab author, rate the tab!
1 2 3 4 5
comments
print report bad tab
guest
You may want to rate the tab now too:
select rating
Wanna post a correction for this tab? Suggest correction