Oops, an error
Loading. Please wait.

Spice Punk Tab

14 views 1 this week
no commentswrite comment
1 2 3 4 5
3 more votes to show rating
add to favorites
launch autoscroll
font size
0
reset
how to read this tab
guitar tuner
Autoscroll
slow
fast
+/-
esc
set tempo
stop
Help us to improve Ultimate-Guitar.com Take our survey!
×
INTRO:
E|------------------------|
B|------------------------|
G|------5---57---7--------|
D|-7---75---57---755-5-5--| X4
A|-7---73---35---555-5-5--|
E|-5---5----------33-3-3--|

  A5                    C5
A como es el roscon?, a como es el roscón?,
  D5                 G5
a 100 es el roscon a 200 el roscon
    A5               C5
Para aca, para aca, para aca, para aca,
 D5                 G5
a 100 es el roscon a 200 el roscon

E|----------------------------------------------------|
B|----------------------------------------------------|
G|-------55555-77777-------------55555-77777----------|
D|-77777-55555-77777-55555-77777-55555-77777-555-5-5--|
A|-77777-33333-55555-55555-77777-33333-55555-555-5-5--|
E|-55555-------------33333-55555-------------333-3-3--|

A5        C5     D5    G5
Yo quiero matar veinte personas
A5        C5     D5    G5
Yo quiero matar veinte personas
A5        C5     D5    G5
Yo quiero matar veinte personas
A5        C5     D5    G5
Yo quiero matar veinte personas

A5         C5     D5       G5
Antes de matarme, Antes de matarme

FINAL: "Sabi barara, Sabi barara..."
E|---------------------------------------------------------|
B|---------------------------------------------------------|
G|------5~~-57~~-7--------------5~~-57~~-7-----------------|
D|-7~~-75~~-57~~-755-5-5---7~~-75~~-57~~-75~~-5~~-5~~-7~~--|
A|-7~~-73~~-35~~-555-5-5---7~~-73~~-35~~-55~~-5~~-5~~-7~~--|
E|-5~~-5----------33-3-3---5~~-5----------3~~-3~~-3~~-5~~--|

E|----------------------------------------------------------------|
B|--15f--14-15-17-14-15-14----------------------------------------|
G|-------------------------16-14-16-14-12-14-12-10-12-10-9v-------|
D|------------------------------------------------------------7~~-|
A|------------------------------------------------------------7~~-|
E|------------------------------------------------------------5~~-|

ACORDES:
E|----X----X----X----X----| f = full
B|----X----X----X----X----| ~ = let ring
G|----X----X----5----7----| v = vibrato
D|----7----5----5----7----|
A|----7----5----3----5----|
E|----5----3----X----X----|
      A5   G5   C5   D5
Suggest correction
Give kudos to tab author, rate the tab!
1 2 3 4 5
comments
print report bad tab
guest
You may want to rate the tab now too:
select rating
Wanna post a correction for this tab? Suggest correction