Oops, an error
Loading. Please wait.

Zuperzenzazional Tab

5 views 1 this week
no commentswrite comment
1 2 3 4 5
3 more votes to show rating
add to favorites
launch autoscroll
font size
0
reset
how to read this tab
guitar tuner
Autoscroll
slow
fast
+/-
esc
set tempo
stop
Help us to improve Ultimate-Guitar.com Take our survey!
×
(Ezta canzion ezta dedicada
a todaz laz personaz
que hablan azi.......)

INTRO: Guitarra limpia (sin distorcion)
E|-----------------------------|
B|-----------------------------|
G|-777-------55--777-------55--|
D|-777-77-99-55--777-77-99-55--|
A|-555-77-99-33--555-77-99-33--|
E|-----55-77---------55-77-----|

(Mismos aocrdes poro con distorcion)
E|-----------------------------|
B|-----------------------------|
G|-777-------55--777-------55--|
D|-777-77-99-55--777-77-99-55--|
A|-555-77-99-33--555-77-99-33--|
E|-----55-77---------55-77-----|


VERSO:

D5    A5   B5   C5
Zuperzenzazional zi zi
D5    A5   B5   C5
Zuperzenzazional zi zi
D5    A5   B5   C5
Zuperzenzazional zi zi
D5    A5   B5   C5
Zuperzenzazional zi zi

FINAL:
E|---------------------|
B|---------------------|
G|-777-------55--7---7-|
D|-777-77-99-55--7---7-|
A|-555-77-99-33--5---5-|
E|-----55-77-----------|

ACORDES:
E|----X-----X-----X-----X-----|
B|----X-----X-----X-----X-----|
G|----5-----X-----X-----7-----|
D|----5-----7-----9-----7-----|
A|----3-----7-----9-----5-----|
E|----X-----5-----7-----X-----|
      C5    A5    B5    D5

DUDAS, CORRECCIONES O COMETARIOS AL CORREO ROCKANDRES182@
Suggest correction
Give kudos to tab author, rate the tab!
1 2 3 4 5
comments
print report bad tab
guest
You may want to rate the tab now too:
select rating
Wanna post a correction for this tab? Suggest correction