Oops, an error
Loading. Please wait.

At The Bottom Tab

457 views 1 this week
no commentswrite comment
1 2 3 4 5
please rate
add to favorites
launch autoscroll
font size
0
reset
how to read this tab
guitar tuner
Autoscroll
slow
fast
+/-
esc
set tempo
stop
Help us to improve Ultimate-Guitar.com Take our survey!
×
Author
Okay, so this tab is not 100% correct... so just listen to the song a few
times to get the timing and strumming patterns and be patient.  This band has
two guitarists, so I've tried to incorporate both guitars into the general
tab.  There is one part of the song however where I've listed what I believe
to be the two guitar parts.  These guys are a local band from my area and
they fucking rock!

>: slide
x: mute with left hand

Intro:

Guitar 1

(These are just the chords, listen to the song for the actual timing)

D||--------------------------||
A||--------------------------||
F||-15-10-11-8-6-11-10-------||
C||-14-9--10-7-5-10-9--------||
G||-12-7--8--5-3-8--7--------||
C||--------------------------||

D||--------------------------||
A||--------------------------||
F||-15-10-11-8-6-11-10-14----||
C||-14-9--10-7-5-10-9--13----||
G||-12-7--8--5-3-8--7--11----||
C||--------------------------|| (Play this the second and third time)


Guitar 2:
D||--------------------------||
A||--------------------------||
F||--------------------------||
C||-0000000--0000000--00000--||
G||-0000000--0000000--00000--||
C||-0000000--0000000--00000--|| (Repeat about 8 times)

Post-intro:

----------------------------------------------------------------|
----------------------------------------------------------------|
--------------------------------------------------10------------|
-12-x-x-15-x-x-14-x-x-11-x-x-11-11-11-11-8--8-7-8-10-7-9>10>9---|
-12-x-x-15-x-x-14-x-x-11-x-x-11-11-11-11-8--8-7-8-8--7-7>8->7---|
-12-x-x-15-x-x-14-x-x-11-x-x-11-11-11-11-8--8-7-8----7-------10>| x2


D||------------------------------------------||
A||------------------------------------------||
F||----------7----------------7--------------||
C||-0--------7--------0-------7--------------||
G||-0--------5-(ring)-0-------5--(ring)------||
C||-0-(ring)----------0-(ring)---------------||

Verse: (With vocals)
----------------------------------------------------------------|
----------------------------------------------------------------|
--------------------------------------------------10------------|
-12-x-x-15-x-x-14-x-x-11-x-x-11-11-11-11-8--8-7-8-10-7-9>10>9---|
-12-x-x-15-x-x-14-x-x-11-x-x-11-11-11-11-8--8-7-8-8--7-7>8->7---|
-12-x-x-15-x-x-14-x-x-11-x-x-11-11-11-11-8--8-7-8----7-------10>| x2

-----------------------------------|
-----------------------------------|
-----------------------------------|
-----------------------------------|
-----------------------------------|
0-12-12-15-15-13-13-13-13-0--------| x4 (These are pull-offs)
Note: palm mute when you open the string between each note

D||------------------------------------------||
A||------------------------------------------||
F||----------7----------------7--------------||
C||-0--------7--------0-------7--------------||
G||-0--------5-(ring)-0-------5--(ring)------||
C||-0-(ring)----------0-(ring)---------------||

D||--------------------------||
A||--------------------------||
F||--------------------------||
C||-0000000--0000000--00000--||
G||-0000000--0000000--00000--||
C||-0000000--0000000--00000--|| (Repeat)

(Look above for Guitar 1's part)

----------------------------------------------------------------|
----------------------------------------------------------------|
--------------------------------------------------10------------|
-12-x-x-15-x-x-14-x-x-11-x-x-11-11-11-11-8--8-7-8-10-7-9>10>9---|
-12-x-x-15-x-x-14-x-x-11-x-x-11-11-11-11-8--8-7-8-8--7-7>8->7---|
-12-x-x-15-x-x-14-x-x-11-x-x-11-11-11-11-8--8-7-8----7-------10>| x2

-----------------------------------|
-----------------------------------|
-----------------------------------|
-----------------------------------|
-----------------------------------|
0-12-12-15-15-13-13-13-13-0--------| x4 

Chorus:

------------------------|
------------------------|
------------------------|
-7-5-7-8-7--7-5-7-8-7-5-|
------------------------|
------------------------| x2

|---------------------------------------------|
|---------------------------------------------|
|---------------------------------------------|
|-888-888-888-888-8>10-777-777-777-777-7>8-88-|
|-888-888-888-888-8>10-777-777-777-777-7>8-88-|
|-888-888-888-888-8>10-777-777-777-777-7>8-88-|

------------------------|
------------------------|
------------------------|
-7-5-7-8-7--7-5-7-8-7-5-|
------------------------|
------------------------| x2

|---------------------------------------------|
|---------------------------------------------|
|---------------------------------------------|
|-888-888-888-888-8>10-777-777-777-777-7>8-88-|
|-888-888-888-888-8>10-777-777-777-777-7>8-88-|
|-888-888-888-888-8>10-777-777-777-777-7>8-88-|

(Post Chorus)
---------------------------------------------------------|
---------------------------------------------------------|
---------------------------------------------------------|
-0-0-0-0-0-0-0-0-0-0-0-8-8-x-x-5-5-5-x-x-8-8-x-x-5-5-5>7-|
-0-0-0-0-0-0-0-0-0-0-0-8-8-x-x-5-5-5-x-x-8-8-x-x-5-5-5>7-|
-0-0-0-0-0-0-0-0-0-0-0-8-8-x-x-5-5-5-x-x-8-8-x-x-5-5-5>7-| x2

-------------------|---------------|
-------------------|---------------|
-7-7-7-7-7-7>10-10>7-7-7-7-7-7-----|
-7-7-7-7-7-7>10-10>7-7-7-7-7-7-----|
-5-5-5-5-5-5>8---8>5-5-5-5-5-5-----|
-0-0-0-0-0-0>0---8>0-0-0-0-0-0-----|

For this next part, I will post what both guitars play:

GUITAR 1:
-------------------------------------|
-------------------------------------|
-------------------------------------|
-8-8-8-8-8-8>10-5-5-5-5-5-5>7-7------|
-8-8-8-8-8-8>10-5-5-5-5-5-5>7-7------|
-8-8-8-8-8-8>10-5-5-5-5-5-5>7-7------|
GUITAR 2:
--------------------------------------------|
--------------------------------------------|
--------------------------------------------|
--------------------------------------------|
-10-10-10-10-10-10>12-12-12>14-14-14--------|
-8--8--8--8--8--8->10-10-10>12-12-12(bend)--|

-------------------|---------------|
-------------------|---------------|
-7-7-7-7-7-7>10-10>7-7-7-7-7-7-----|
-7-7-7-7-7-7>10-10>7-7-7-7-7-7-----|
-5-5-5-5-5-5>8---8>5-5-5-5-5-5-----|
-0-0-0-0-0-0>0---8>0-0-0-0-0-0-----|

GUITAR 1:
-------------------------------------|
-------------------------------------|
-------------------------------------|
-8-8-8-8-8-8>10-5-5-5-5-5-5>7-7------|
-8-8-8-8-8-8>10-5-5-5-5-5-5>7-7------|
-8-8-8-8-8-8>10-5-5-5-5-5-5>7-7------|
GUITAR 2:
--------------------------------------------|
--------------------------------------------|
--------------------------------------------|
-10-10-10-10-10-10>12-12-12>14-14-14--------|
-8--8--8--8--8--8->10-10-10>12-12-12(bend)--|
--------------------------------------------|

(Break-down)
------------------------------------------------------|
------------------------------------------------------|
------------------------------------------------------|
-7xx-7xx-7xx-7xx-7xx-7>5>7xx-7xx-7xx-7xx-7xx-7>5------|
-5xx-5xx-5xx-5xx-5xx-5>3>5xx-5xx-5xx-5xx-5xx-5>3------|
------------------------------------------------------|

--------------------------------------------------------|
--------------------------------------------------------|
--------------------------------------------------------|
-8xx-8xx-8xx-8xx-8xx-8-7-5xx-5xx-5xx-5xx-5>7-7-7>8-88---|
-8xx-8xx-8xx-8xx-8xx-8-7-5xx-5xx-5xx-5xx-5>7-7-7>8-88---|
-8xx-8xx-8xx-8xx-8xx-8-7-5xx-5xx-5xx-5xx-5>7-7-7>8-88---|

------------------------------------------------------|
------------------------------------------------------|
------------------------------------------------------|
-7xx-7xx-7xx-7xx-7xx-7>5>7xx-7xx-7xx-7xx-7xx-7--------|
-5xx-5xx-5xx-5xx-5xx-5>3>5xx-5xx-5xx-5xx-5xx-5--------|
------------------------------------------------------|

--------------------------------------------------------|
--------------------------------------------------------|
--------------------------------------------------------|
-8xx-8xx-8xx-8xx-8xx-8-7-5xx-5xx-5xx-5xx-5>7-7-7>8-88---|
-8xx-8xx-8xx-8xx-8xx-8-7-5xx-5xx-5xx-5xx-5>7-7-7>8-88---|
-8xx-8xx-8xx-8xx-8xx-8-7-5xx-5xx-5xx-5xx-5>7-7-7>8-88---|


---------------------------------------------|
---------------------------------------------|
--7777-xx-7777-xx-7777-xx-7777-xx-7777-xx-77-|
--7777-xx-7777-xx-7777-xx-7777-xx-7777-xx-77-|
--5555-xx-5555-xx-5555-xx-5555-xx-5555-xx-55-|
--0000-xx-0000-xx-0000-xx-0000-xx-0000-xx-00-|

----------------------------------------------------------------------|
----------------------------------------------------------------------|
----------------------------------------------------------------------|
-11-11-11-11-xx-------------------------------------------------------|
-11-11-11-11-xx-------------------------------------------------------|
-11-11-11-11-xx-(play this 5 times... same strumming pattern as above-|

---------------------------------------------|
---------------------------------------------|
--7777-xx-7777-xx-7777-xx-7777-xx-7777-xx-77-|
--7777-xx-7777-xx-7777-xx-7777-xx-7777-xx-77-|
--5555-xx-5555-xx-5555-xx-5555-xx-5555-xx-55-|
--0000-xx-0000-xx-0000-xx-0000-xx-0000-xx-00-|

----------------------------------------------------------------------|
----------------------------------------------------------------------|
----------------------------------------------------------------------|
-11-11-11-11-xx-------------------------------------------------------|
-11-11-11-11-xx-------------------------------------------------------|
-11-11-11-11-xx-(play this 5 times... same strumming pattern as above-|

----------------------------------------------------------------------|
----------------------------------------------------------------------|
----------------------------------------------------------------------|
-00-33-1111--00-33-1111--00-33-1111--00-33-1111-----------------------|
-00-33-1111--00-33-1111--00-33-1111--00-33-1111-----------------------|
-00-33-1111--00-33-1111--00-33-1111--00-33-1111-----------------------|
(Note: for this little above part, I like to palm mute the first two bars and then just 
go all out on the last two and strum really fast)

D||-------------------------------------1-----------||
A||-------------------------------------3-----------||
F||----------7----------------7---------2-----------||
C||-0--------7--------0-------7---------0-----------||
G||-0--------5-(ring)-0-------5--(ring)-0-----------||
C||-0-(ring)----------0-(ring)----------0-(ring)----||
Suggest correction
Give kudos to tab author, rate the tab!
1 2 3 4 5
comments
print report bad tab
guest
You may want to rate the tab now too:
select rating
Please do not post tabs as comments. Select "correction" instead!