Oops, an error
Loading. Please wait.

Another You Bass Tab

2,641 views 36 this week
no commentswrite comment
1 2 3 4 5
accurate
x 5
add to favorites
launch autoscroll
font size
0
reset
guitar tuner
Tab Pro tools
  • play this tab
  • loop segment
  • change instrument
  • show fretboard
  • metronome
×
Best way to learn
"Another You"
Autoscroll
slow
fast
+/-
esc
set tempo
stop
Contributor
Difficulty
intermediate
-------------------------------------------------------------------------------
                             ANOTHER YOU - Of Mice and Men
-------------------------------------------------------------------------------

/ = Slide

Tuning:

Verse: (0:32) x2

G|--4~-4~/7----4~-4~-0~----|
D|-------------------------|
A|-------------------------|
E|-------------------------|

Chorus: (0:47)
G|--4-4-4-4--4-4-4-4--4-4-4-0--0-0-0-2-2-2-22-2~-----------------------------|
D|---------------------------------------------------------------------------|
A|---------------------------------------------------------------------------|
E|---------------------------------------------------------------------------|

G|--4-4-4/11--4-4-4/11--4-4-4/7--0-0-2-2-2~/11-11-11-9-9-9--0~~--------------|
D|---------------------------------------------------------------------------|
A|---------------------------------------------------------------------------|
E|---------------------------------------------------------------------------|

Verse 2: (1:24) x3
G|--4~-4~/7----4~-4~-0~----|
D|-------------------------|
A|-------------------------|
E|-------------------------|

Chorus: (1:55)
G|--4-4-4-4--4-4-4-4--4-4-4-0--0-0-0-2-2-2-22-2~-----------------------------|
D|---------------------------------------------------------------------------|
A|---------------------------------------------------------------------------|
E|---------------------------------------------------------------------------|

G|--4-4-4/11--4-4-4/11--4-4-4/7--0-0-2-2-2~/11-11-11-9-9-9-0-0-0-0-----------|
D|---------------------------------------------------------------------------|
A|---------------------------------------------------------------------------|
E|---------------------------------------------------------------------------|

G|--4-4-4-4-4-4--2-2-2-2-2-2--9-9-9--0~~-------------------------------------|
D|---------------------------------------------------------------------------|
A|---------------------------------------------------------------------------|
E|---------------------------------------------------------------------------|

Bridge: (2:40)
G|--4-4-4-4--2-2-2-2--5-7-7-7-7-7-7------------------------------------------|
D|---------------------------------------------------------------------------|
A|---------------------------------------------------------------------------|
E|---------------------------------------------------------------------------|

G|--4-4-4-4--2-2-2-2--0-0-0-0-0-0-0-0-0--------------------------------------|
D|---------------------------------------------------------------------------|
A|---------------------------------------------------------------------------|
E|---------------------------------------------------------------------------|

Chorus: (3:00)
G|-4/13----4-4-4-4--4-4-4-4--4-4-4-0--0-0-0-2-2-2-22-2~----------------------|
D|---------------------------------------------------------------------------|
A|---------------------------------------------------------------------------|
E|---------------------------------------------------------------------------|

G|--4-4-4/11--4-4-4/11--4-4-4/7--0-0-2-2-2~/11-11-11-9-9-9-0-0-0-0-----------|
D|---------------------------------------------------------------------------|
A|---------------------------------------------------------------------------|
E|---------------------------------------------------------------------------|

G|--4-4-4-4-4-4--2-2-2-2-2-2--9-9-9--0~~-------------------------------------|
D|---------------------------------------------------------------------------|
A|---------------------------------------------------------------------------|
E|---------------------------------------------------------------------------|



===============================================================================
comments
print report bad tab
I want to post or [tab]
guest
You may want to rate the tab now too:
select rating
Please do not post tabs as comments. Select "correction" instead!