Oops, an error
Loading. Please wait.

Another You tab

version 1
version 1

Whole song

4,479 views 48 this week
2 commentsread comments
1 2 3 4 5
x 8
add to favorites
×
Save as Personal and add changes to this tab that will be seen only by you. Learn more ›
×
You can save this tab as Personal to edit and correct it or add notes. All changes will be seen only by you. Learn more »
launch autoscroll
font size
0
reset
how to read this tab
guitar tuner
edit
Autoscroll
slow
fast
+/-
esc
set tempo
stop
-------------------------------------------------------------------------------
                             Another You - Of Mice And Men
-------------------------------------------------------------------------------
Tabbed by: Sean Hulme
E-mail: Sean.hulme@hotmail.co.uk

Tuning: Drop C

I tabbed this by ear so I'm not sure how accurate it is but it sounded pretty good to me, any suggestions or 
corrections are welcome, thanks.

e|-------------------------------------------------------------------------------------------------------------|
B|-------------------------------------------------------------------------------------------------------------|
G|-------------------------------------------------------------------------------------------------------------|
D|-6--6-6/9------6--6-6/11-----6--6-6/9------6--6-6/11-----6--6-6/9------6--6-6/11-----6--6-6/9------6--6-6/11-|
A|-4--4-4/7------4--4-4/0------4--4-4/7------4--4-4/0------4--4-4/7------4--4-4/0------4--4-4/7------4--4-4/0--|
E|-4--4-4/7------4--4-4/0------4--4-4/7------4--4-4/0------4--4-4/7------4--4-4/0------4--4-4/7------4--4-4/0--|
 
e|-------------------------------------------------------------------------------------------------------------|
B|-------------------------------------------------------------------------------------------------------------|
G|-------------------------------------------------------------------------------------------------------------|
D|-6--6-6/9------6--6-6/11-----6--6-6/9------6--6-6/11---------------------------------------------------------|
A|-4--4-4/7------4--4-4/0------4--4-4/7------4--4-4/0------4-4-4-4---4-4-4-4--4-4-4-0-0-0-0-0-0-2-2-2-2-2-2----|
E|-4--4-4/7------4--4-4/0------4--4-4/7------4--4-4/0------4-4-4-4---4-4-4-4--4-4-4-0-0-0-0-0-0-2-2-2-2-2-2----|
 
e|-------------------------------------------------------------------------------------------------------------|
B|-------------------------------------------------------------------------------------------------------------|
G|-------------------------------------------------------------------------------------------------------------|
D|-------6/9--------6/9--66666/9-------------------------------------6--6-6/9------6--6-6/11-----6--6-6/9------|
A|-4-4-4-4/7--4-4-4-4/7--44444/7-0-0-0-0-0-0-2-2-2-2-2-2-9-9-9--0----4--4-4/7------4--4-4/0------4--4-4/7------|
E|-4-4-4-4/7--4-4-4-4/7--44444/7-0-0-0-0-0-0-2-2-2-2-2-2-9-9-9--0----4--4-4/7------4--4-4/0------4--4-4/7------|
 
e|-------------------------------------------------------------------------------------------------------------|
B|-------------------------------------------------------------------------------------------------------------|
G|-------------------------------------------------------------------------------------------------------------|
D|-6--6-6/11-----6--6-6/9------6--6-6/11----6--6-6/9------6--6-6/11-----6--6-6/9------6--6-6/11-----6--6-6/9---|
A|-4--4-4/0------4--4-4/7------4--4-4/0-----4--4-4/7------4--4-4/0------4--4-4/7------4--4-4/0------4--4-4/7---|
E|-4--4-4/0------4--4-4/7------4--4-4/0-----4--4-4/7------4--4-4/0------4--4-4/7------4--4-4/0------4--4-4/7---|
 
e|-------------------------------------------------------------------------------------------------------------|
B|-------------------------------------------------------------------------------------------------------------|
G|-------------------------------------------------------------------------------------------------------------|
D|-6--6-6/11--------------------------------------------------------------6/9--------6/9--66666/9--------------|
A|-4--4-4/0------4-4-4-4--4-4-4-4--4-4-4-0-0-0-0-0-0-2-2-2-2-2-2----4-4-4-4/7--4-4-4-4/7--44444/7--0-0-0-0-0-0-|
E|-4--4-4/0------4-4-4-4--4-4-4-4--4-4-4-0-0-0-0-0-0-2-2-2-2-2-2----4-4-4-4/7--4-4-4-4/7--44444/7--0-0-0-0-0-0-|
 
e|-------------------------------------------------------------------------------------------------------------|
B|-------------------------------------------------------------------------------------------------------------|
G|---------------------------------------------------------------------------9-9-9-9-9-9-9-9-9-9-9-------------|
D|---------------------------------------------------------------------------7-7-7-7-7-7-7-7-7-7-7-------------|
A|-2-2-2-2-2-2-9-9-9-9-9-9-0-0-0-0-0-0-4-4-4-4-4-4-2-2-2-2-2-2-9-9-9--0------9-9-9-9-9-9-9-9-9-9-9-------------|
E|-2-2-2-2-2-2-9-9-9-9-9-9-0-0-0-0-0-0-4-4-4-4-4-4-2-2-2-2-2-2-9-9-9--0----------------------------------------|
 
e|-------------------------------------------------------------------------------------------------------------|
B|-------------------------------------------------------------------------------------------------------------|
G|-9-9-9-9-9-9-9-9-9-9-9--9-9-9-9-9-9-9-9-9-9-9-9--9-9-9-9-9-9-9-9-9-9-9--9-9-9-9-9-9-9-9-9-9-9----------------|
D|-7-7-7-7-7-7-7-7-7-7-7--7-7-7-7-7-7-7-7-7-7-7-7--7-7-7-7-7-7-7-7-7-7-7--7-7-7-7-7-7-7-7-7-7-7----------------|
A|-7-7-7-7-7-7-7-7-7-7-7--7-7-7-7-7-7-7-7-7-7-7-7--7-7-7-7-7-7-7-7-7-7-7--9-9-9-9-9-9-9-9-9-9-9----------------|
E|------------------------9-9-9-9-9-9-9-9-9-9-9-9--9-9-9-9-9-9-9-9-9-9-9---------------------------------------|
 
e|-------------------------------------------------------------------------------------------------------------|
B|-------------------------------------------------------------------------------------------------------------|
G|-9-9-9-9-9-9-9-9-9-9-9--6-6-6-6-6-6-6-6-6-6-6--6-6-6-6-6-6-6-6-6-6-6--9-9-9-9-9-9-9-9-9-9-9------------------|
D|-7-7-7-7-7-7-7-7-7-7-7--7-7-7-7-7-7-7-7-7-7-7--7-7-7-7-7-7-7-7-7-7-7--7-7-7-7-7-7-7-7-7-7-7------------------|
A|-7-7-7-7-7-7-7-7-7-7-7--5-5-5-5-5-5-5-5-5-5-5--5-5-5-5-5-5-5-5-5-5-5--9-9-9-9-9-9-9-9-9-9-9------------------|
E|-------------------------------------------------------------------------------------------------------------|
 
e|-------------------------------------------------------------------------------------------------------------|
B|-------------------------------------------------------------------------------------------------------------|
G|-9-9-9-9-9-9-9-9-9-9-9--6-6-6-6-6-6-6-6-6-6-6--6-6-6-6-6-6-6-6-6-6-6--9-9-9-9-9-9-9-9-9-9-9------------------|
D|-7-7-7-7-7-7-7-7-7-7-7--7-7-7-7-7-7-7-7-7-7-7--7-7-7-7-7-7-7-7-7-7-7--7-7-7-7-7-7-7-7-7-7-7------------------|
A|-7-7-7-7-7-7-7-7-7-7-7--5-5-5-5-5-5-5-5-5-5-5--5-5-5-5-5-5-5-5-5-5-5--9-9-9-9-9-9-9-9-9-9-9------------------|
E|-------------------------------------------------------------------------------------------------------------|
 
e|-------------------------------------------------------------------------------------------------------------|
B|-------------------------------------------------------------------------------------------------------------|
G|-9-9-9-9-9-9-9-9-9-9-9--7p6-6-6-6-6-6-6-6-6-6--6-6-6-6-6-6-6-6-6-6-6-----------------------------------------|
D|-7-7-7-7-7-7-7-7-7-7-7--7-7-7-7-7-7-7-7-7-7-7--7-7-7-7-7-7-7-7-7-7-7\----------------------------------------|
A|-7-7-7-7-7-7-7-7-7-7-7--5-5-5-5-5-5-5-5-5-5-5--5-5-5-5-5-5-5-5-5-5-5\---------4444-44-4-4444-44-4-4444-44----|
E|------------------------------------------------------------------------------4444-44-4-4444-44-4-4444-44----|
 
e|-------------------------------------------------------------------------------------------------------------|
B|-------------------------------------------------------------------------------------------------------------|
G|-------------------------------------------------------------------------------------------------------------|
D|----------------------------------6/9---------6/9------6/9---------------------------------------------------|
A|-0-0-0-0-0-0-2-2-2-2-2-2--4444-44-4/7-4444-44-4/7-444444/7-0-0-0-0-0-0-2-2-2-2-2-2-9-9-9-9-9-9-0-0-0-0-0-0---|
E|-0-0-0-0-0-0-2-2-2-2-2-2--4444-44-4/7-4444-44-4/7-444444/7-0-0-0-0-0-0-2-2-2-2-2-2-9-9-9-9-9-9-0-0-0-0-0-0---|
 
e|-------------------------------------------------------------------------------------------------------------|
B|-------------------------------------------------------------------------------------------------------------|
G|-------------------------------------------------------------------------------------------------------------|
D|-------------------------------------------------------------------------------------------------------------|
A|-4-4-4-4-4-4-2-2-2-2-2-2-0-0-0-0-0-0-9-9-7-12\0--------------------------------------------------------------|
E|-4-4-4-4-4-4-2-2-2-2-2-2-0-0-0-0-0-0-9-9-7-12\0--------------------------------------------------------------|


************************************

| /   slide up
| \   slide down
| h   hammer-on
| p   pull-off
| ~   vibrato
| +   harmonic
| x   Mute note
| b   Bend
| pb  Pre-bend
| br  Bend release
| pbr Pre-bend release
| brb Bend release bend

************************************
Suggest correction
Creating personal tab
Creating personal tab
You can edit any tab online and save it as your Personal.

You can edit, replace or remove any tab part or add personal notes – all changes will be seen only by you.

Personal tabs can be accessed anytime from any device, even offline.
Learn more »
comments
print report bad tab
2 comments total.
0 reply
Artisan17 10 Sep 24, 2015 06:52 AM

Sounds good awesome work!

0 reply
seanhulme 64 Sep 24, 2015 01:46 PM

Thanks! Appreciate the feedback

guest
You may want to rate the tab now too:
select rating
Wanna post a correction for this tab? Suggest correction