Oops, an error
Loading. Please wait.

Bones Exposed Bass Tab

version 1
version 1

Whole song

Interactive

13,652 views 78 this week
no commentswrite comment
1 2 3 4 5
excellent!
x 4
add to favorites
launch autoscroll
font size
0
reset
guitar tuner
Tab Pro tools
  • play this tab
  • loop segment
  • change instrument
  • show fretboard
  • metronome
Autoscroll
slow
fast
+/-
esc
set tempo
stop
Contributor
Difficulty
Tuning
intermediate
C G C G C E
-------------------------------------------------------------------------------
                                               Bones Exposed  - Of Mice And Men
-------------------------------------------------------------------------------
Tabbed by: David Parfett
E-mail: dbparfett@gmail.com
Tuning: C G C F

Hey ! Just to let you know for the verse those are 10's 12's and 13's! If there's
any corrections I need to make or if you want me to tab another song for you just
let me know! Enjoy!


Intro 0:08

F|-----------------------------------|
C|-----------------------------------|
G|-----------------------------------|
C|-0-(ring)----------00-40-30-10-3---|

F|-----------------------------------------------------------------|
C|-----------------------------------------------------------------|
G|-----------------------------------------------------------------|
C|-00-40-30-10-3-1-00-40-30-10-3-1-00-40-30-10-3-1-00-40-30-10-0---|

F|---------------------------------------------------------------------------|
C|---------------------------------------------------------------------------|
G|---------------------------------------------------------------------------|
C|-00-40-30-10-3-1-00-40-30-10-3-1-00-40-30-10-3-1-00-40-30-10-3-1-0-(ring)--|

Verse 0:28

F|--------------------------------------------------------------------------------------| 
C|--------------------------------------------------------------------------------------| x2
G|---------1310------------------------------------------1310---------------------------|
C|-0-00-00-----00101312-0-00-00-1313131313131313-0-00-00-----00101312-10-10-10-13-13-13-|

F|--------------------------------------------------------------------------|
C|--------------------------------------------------------------------------|
G|---------1310-----------------------------1310----------------------------|
C|-0-00-00-----00101312-0-00-00-----0-00-00-----00101312-10-10-10-13-13-13--|

F|----------------------------------------------------------------|
C|----------------------------------------------------------------|
G|---------1310-----------------------------1310------------------|
C|-0-00-00-----00101312-0-00-00-----0-00-00-----00101312--rest----|

Chorus 0:56

F|-----------------------------------------------------------------|
C|-----------------------------------------------------------------|
G|-----------------------------------------------------------------|
C|-0-0-0-0-0-0-0-0-0-0-0-0-0-0-0-0-0-0-0-0-0-0-0-0-0-0-0-0-0-0-0-0-|
                                                                     x2
F|-----------------------------------------------------------------|
C|-----------------------------------------------------------------|
G|-----------------------------------------------------------------|
C|-8-8-8-8-8-8-8-8-8-8-8-8-8-8-8-8-5-5-5-5-5-5-5-5-5-5-5-5-5-5-5-5-|

Verse 1:25

F|--------------------------------------------------------------------------------------| 
C|--------------------------------------------------------------------------------------| x2
G|---------1310------------------------------------------1310---------------------------|
C|-0-00-00-----00101312-0-00-00-1313131313131313-0-00-00-----00101312-10-10-10-13-13-13-|

F|-------------------------------------------------------------|
C|-------------------------------------------------------------|
G|-------------------------------------------------------------|
C|-00-00-00-00-00-00-00-00-1-3-4-00-00-00-00-00-00-00-00-4-3-1-|
                                                                 x2
G|--------------------------------------------------------------|
D|--------------------------------------------------------------|
A|--------------------------------------------------------------|
E|-00-00-00-00-00-00-00-00-1-3-4-00-00-00-00-00-00-00-00--rest--|

Chorus 2:06

F|-----------------------------------------------------------------|
C|-----------------------------------------------------------------|
G|-----------------------------------------------------------------|
C|-0-0-0-0-0-0-0-0-0-0-0-0-0-0-0-0-0-0-0-0-0-0-0-0-0-0-0-0-0-0-0-0-|
                                                                    x2
F|-----------------------------------------------------------------|
C|-----------------------------------------------------------------|
G|-----------------------------------------------------------------|
C|-8-8-8-8-8-8-8-8-8-8-8-8-8-8-8-8-5-5-5-5-5-5-5-5-5-5-5-5-5-5-5-5-|

Bridge 2:34

F|------------------------------------------------------------------|x2
C|------------------------------------------------------------------|
G|------------------------------------------------------------------|
C|-00-40-30-10-3-1-00-40-30-10-3-1-00-40-30-10-3-1-00-40-30-10-3-1--|

F|-----------------------------------------------------------------|x2
C|-----------------------------------------------------------------|
G|-----------------------------------------------------------------|
C|-00-40-30-10-3-1-00-40-30-10-3-1-00-40-30-10-3-1-00-40-30-10-0---|


F|------------| x7   |---------------------|
C|------------|      |---------------------|
G|------------|      |---------------------|
C|-0-4-3-1-0--|      |-00--00--0-(ring)----|

No Bass 3:17

Bass Back In 3:40

F|---------------------------------|
C|---------------------------------|
G|---------------------------------|
C|-5-5-5-5-5-5-5-5-5-5-5-5-5-5-5-5-|

Chorus 3:44

F|-----------------------------------------------------------------|
C|-----------------------------------------------------------------|
G|-----------------------------------------------------------------|
C|-0-0-0-0-0-0-0-0-0-0-0-0-0-0-0-0-0-0-0-0-0-0-0-0-0-0-0-0-0-0-0-0-|
                                                                     x2
F|-----------------------------------------------------------------|
C|-----------------------------------------------------------------|
G|-----------------------------------------------------------------|
C|-8-8-8-8-8-8-8-8-8-8-8-8-8-8-8-8-5-5-5-5-5-5-5-5-5-5-5-5-5-5-5-5-|

Outro 4:11

F|----------------|
C|----------------|
G|----------------|
C|-00-40-30-10-0--|



| /  slide up
| \  slide down
| h  hammer-on
| p  pull-off
| ~  vibrato
| +  harmonic
| x  Mute note
===============================================================================
comments
print report bad tab
I want to post or [tab]
guest
You may want to rate the tab now too:
select rating
Please do not post tabs as comments. Select "correction" instead!