Oops, an error
Loading. Please wait.

Bones Exposed Tab

version 1
version 1

Solo

Whole song

Interactive

9,315 views 18 this week
no commentswrite comment
1 2 3 4 5
excellent!
x 6
add to favorites
launch autoscroll
font size
0
reset
how to read this tab
guitar tuner
Tab Pro tools
  • play this tab
  • loop segment
  • change instrument
  • show fretboard
  • metronome
×
Best way to learn
"Bones Exposed"
Autoscroll
slow
fast
+/-
esc
set tempo
stop
Contributor
Difficulty
Tuning
intermediate
C G C F A D
Guitar Solo
      Q.      Q.      Q        E   H          Q.      
D||------------------------|-------------------------|
A||--15------14------------|-------------------------|
F||------------------15----|---L--14b---------L------|
C||------------------------|-------------------------|
G||------------------------|-------------------------|
C||------------------------|-------------------------|


   |--3--|        |--3--|                           
   S  S  S  S  S  S  S  S  S  S  E    E    E    E   
---------------------------------------------------|
---------------------------------------------------|
--14-15-14-12----12-14-12--------------------------|
--------------15----------15-14-15S--12S--14S--12--|
---------------------------------------------------|
---------------------------------------------------|


   |--3--|       |--3-|       |-3-|      |-3-|                               
   S  S  S  S  S S  S S  S  S S S S  S S S S S S S     Q.      Q.      Q     
---------------------------------------------------|------------------------|
---------------------------------------------------|--15------14------18----|
---------------------------------------------------|------------------------|
--11-12-11-------8-11-8-------7-8-7------5-7-5-----|------------------------|
-----------13-12--------12-10-------10-8-------8-7-|------------------------|
---------------------------------------------------|------------------------|


   E   H          Q.         W                  
-------------------------|---------------------|
---L--17b---------L------|--17b----------------|
-------------------------|---------------------|
-------------------------|---------------------|
-------------------------|---------------------|
-------------------------|---------------------|


   S  S  S  S  S  S  S S  S  S  S  S  S  S  S S   
--18-17-15-17-15----15---15-13-12---------------||
-----------------18---------------14-15-14-15---||
------------------------------------------------||
------------------------------------------------||
------------------------------------------------||
------------------------------------------------||




Duration Legend
---------------
W - whole - Semi-Breve
H - half - Minim
Q - quarter - Crochet
E - 8th - Quaver
S - 16th - Semi-Quaver
T - 32nd - Semidemiquaver
X - 64th - Hemidemisemiquaver
. - note dotted
|-n-|  - n-tuplets


Tablature Legend
----------------
L - tied note
x - dead note
g - grace note
(n) - ghost note
> - accentuded note
NH - natural harmonic
AH - artificial harmonic
TH - tapped harmonic
SH - semi harmonic
PH - pitch harmonic
h - hammer on
p - pull off
b - bend
br - bendRelease
pb - preBend
pbr - preBendRelease
brb - bendReleaseBend
\n/ - tremolo bar dip
\n - tremolo bar dive
-/n - tremolo bar Release up
/n\ - tremolo bar inverted dip
/n - tremolo bar return
-\n - tremolo bar Release down
S - shift slide
s - legato slide
/ -  slide into from below or out of upwards
\ -  slide into from above or out of downwards
~ - vibrato
W - wide vibrato
tr - trill
TP - tremolo picking
T - tapping
S - slap
P - pop
< - fade in
^ - brush up
v - brush down
comments
print report bad tab
I want to post or [tab]
guest
You may want to rate the tab now too:
select rating
Please do not post tabs as comments. Select "correction" instead!