Oops, an error
Loading. Please wait.
We have an official Bones Exposed tab made by UG professional guitarists. Check out the tab »
×
586 views 9 this week
2 commentsread comments
1 2 3 4 5
1 last vote to show rating
add to favorites
×
Save as Personal and add changes to this tab that will be seen only by you. Learn more ›
×
You can save this tab as Personal to edit and correct it or add notes. All changes will be seen only by you. Learn more »
launch autoscroll
font size
0
reset
guitar tuner
edit
Autoscroll
slow
fast
+/-
esc
set tempo
stop
Of Mice & Men: Bones Exposed

[Intro]

F|--------|
C|--------|
G|--------|
C|-0------|

Long Rest
Then
F|-------------------|
C|-------------------|
G|-------------------|
C|-0--4--3--1--0-----|


[Main Riff]

F|-------------------|
C|-------------------|
G|-------------------|3x
C|-0--4--3--1---3--1-|

F|-------------------|
C|-------------------|
G|-------------------|
C|-0--4--3--1--0-----|

F|-------------------|
C|-------------------|
G|-------------------|3x
C|-0--4--3--1---3--1-|

F|-------------------|
C|-------------------|
G|-------------------|
C|-0~------------12\-|


[Verse Part 1] x2

F|-----------------------------------------|
C|-----------------------------------------|
G|----------------------------6~-6-6~-6-6~-|
C|-0--0--0-----------0--0--0---------------|

F|---------------------------------------------|
C|---------------------------------------------|
G|-------------------3~-3-3~-3-3~-6~-6-6~-6-6~-|
C|-0--0--0-------------------------------------|


[Verse Part 2]

F|-----------------------------------------|
C|-----------------------------------------|
G|-----------------------------------------|
C|-0--00-00--------000--00--00-------------|

F|---------------------------------------------|
C|---------------------------------------------|
G|-------------------3~-3-3~-3-3~-6~---6~---6~-|
C|-0--00--00-------00--------------------------|

F|-----------------------------------------|
C|-----------------------------------------|
G|-----------------------------------------|
C|-0--00-00--------000--00--00-------------|

F|---------------------------------------------|
C|---------------------------------------------|
G|---------------------------------------------|
C|-0--00--00-------000-------------------------|


[Chorus] x2

F|-----------------------------------------------------------------|
C|-----------------------------------------------------------------|
G|-----------------------------------------------------------------|
C|-0-0-0-0-0-0-0-0-0-0-0-0-0-0-0-0-0-0-0-0-0-0-0-0-0-0-0-0-0-0-0-0-|   

F|-----------------------------------------------------------------|
C|-----------------------------------------------------------------|
G|-----------------------------------------------------------------|
C|-8-8-8-8-8-8-8-8-8-8-8-8-8-8-8-8-5-5-5-5-5-5-5-5-5-5-5-5-5-5-5-5-|


[Verse 2]

F|-----------------------------------------|
C|-----------------------------------------|
G|----------------------------6~-6-6~-6-6~-|
C|-0--0--0-----------0--0--0---------------|

F|---------------------------------------------|
C|---------------------------------------------|
G|-------------------3~-3-3~-3-3~-6~-6-6~-6-6~-|
C|-0--0--0-------------------------------------|

F|-----------------------------------------|
C|-----------------------------------------|
G|----------------------------6~-6-6~-6-6~-|
C|-0--0--0-----------0--0--0---------------|

F|---------------------------------------------|
C|---------------------------------------------|
G|-------------------3~---3~---3~-6~---6~---6~-|
C|-0--0--0-------------------------------------|

F|-------------------------------------------------------------|
C|-------------------------------------------------------------|
G|-------------------------------------------------------------|
C|-0--00-00----------------------------------------------4-3-1-| 

F|-------------------------------------------------------------|
C|-------------------------------------------------------------|
G|-------------------------------------------------------------|
C|-00-00-00----------------------------------------------------|

F|-------------------------------------------------------------|
C|-------------------------------------------------------------|
G|-------------------------------------------------------------|
C|-00-00-00-00-00-00-00-00-1-3-4-00-00-00-00-00-00-00-00-4-3-1-| 

F|-------------------------------------------------------------|
C|-------------------------------------------------------------|
G|-------------------------------------------------------------|
C|-00-00-00-00-00-00-00-00-1-3-4-00-00-00-00-00-00-00-00-------|


[Chorus] x2

F|-----------------------------------------------------------------|
C|-----------------------------------------------------------------|
G|-----------------------------------------------------------------|
C|-0-0-0-0-0-0-0-0-0-0-0-0-0-0-0-0-0-0-0-0-0-0-0-0-0-0-0-0-0-0-0-0-|   

F|-----------------------------------------------------------------|
C|-----------------------------------------------------------------|
G|-----------------------------------------------------------------|
C|-8-8-8-8-8-8-8-8-8-8-8-8-8-8-8-8-5-5-5-5-5-5-5-5-5-5-5-5-5-5-5-5-|


[Pause]


[Pre-Solo]

F|-------------------|
C|-------------------|
G|-------------------|
C|-0--4--3--1--0-----|


[Solo Part 1]

F|-------------------|    F|-------------------|
C|-------------------|    C|-------------------|
G|-------------------|3x  G|-------------------|
C|-0--4--3--1---3--1-|    C|-0--4--3--1--0-----|
F|-------------------|    F|-------------------|

C|-------------------|    C|-------------------|
G|-------------------|3x  G|-------------------|
C|-0--4--3--1---3--1-|    C|-0--4--3-00--00----|


[Solo Part 2]

F|----------------|        
C|----------------|        
G|----------------|3x      
C|-0~-4~-3~--1-0--|        

F|----------------|        
C|----------------|        
G|----------------|      
C|-0~-4~-3~--1-1/-|        

F|----------------|        
C|----------------|        
G|----------------|3x      
C|-0~-4~-3~--1-0--|        

F|-----------------------|
C|-----------------------|
G|-----------------------|
C|-0-0---0-0---0~--------|

Rest
Then
F|---------------------------------|
C|---------------------------------|
G|---------------------------------|
C|-5-5-5-5-5-5-5-5-5-5-5-5-5-5-5-5-|


[Chorus] x3

F|-----------------------------------------------------------------|
C|-----------------------------------------------------------------|
G|-----------------------------------------------------------------|
C|-0-0-0-0-0-0-0-0-0-0-0-0-0-0-0-0-0-0-0-0-0-0-0-0-0-0-0-0-0-0-0-0-|   

F|-----------------------------------------------------------------|
C|-----------------------------------------------------------------|
G|-----------------------------------------------------------------|
C|-8-8-8-8-8-8-8-8-8-8-8-8-8-8-8-8-5-5-5-5-5-5-5-5-5-5-5-5-5-5-5-5-|


[Final Chorus Time]

F|-----------------------------------------------------------------|
C|-----------------------------------------------------------------|
G|-----------------------------------------------------------------|
C|-0-0-0-0-0-0-0-0-0-0-0-0-0-0-0-0-0-0-0-0-0-0-0-0-0-0-0-0-0-0-0-0-| 

F|-----------------------------------------------------------------|
C|-----------------------------------------------------------------|
G|---------------------------------------------------------/10~----|
C|-8-8-8-8-8-8-8-8-8-8-8-8-8-8-8-8-5-5-5-5-5-5-5-5-5-5-5-5---------|

F|-------------------|
C|-------------------|
G|-------------------|
C|-0--4--3--1--0-----|


***********************************
| /   Slide up
| ~   Vibrato
***********************************

            
            
Suggest correction
Creating personal tab
Creating personal tab
You can edit any tab online and save it as your Personal.

You can edit, replace or remove any tab part or add personal notes – all changes will be seen only by you.

Personal tabs can be accessed anytime from any device, even offline.
Learn more »
Give kudos to tab author, rate the tab!
1 2 3 4 5
comments
print report bad tab
2 comments total.
0 reply
IanJBass 59 Sep 10, 2017 09:51 PM

Perfect! The other tab seemed to be a copy paste of the guitar tabs. This is perfectly accurate :D

0 reply
IanJBass 59 Sep 10, 2017 09:51 PM

awesome! good job on these!!

guest
You may want to rate the tab now too:
select rating
Wanna post a correction for this tab? Suggest correction