Oops, an error
Loading. Please wait.

Break Free Tab

version 1
version 1

Whole song

Interactive

4,164 views 15 this week
3 commentsread comments
1 2 3 4 5
accurate
x 7
add to favorites
launch autoscroll
font size
0
reset
how to read this tab
guitar tuner
Tab Pro tools
  • play this tab
  • loop segment
  • change instrument
  • show fretboard
  • metronome
Autoscroll
slow
fast
+/-
esc
set tempo
stop
Contributor
Tabs for Of Mice & Men's song, Break Free, off their album, Restoring Force. I've tabbed
out what the rhythm plays (for the most part), and there might be a few errors. Tabbed
by lafawafa, hope you all enjoy!

Tuning: Drop C

Basic guide:
* - Palm mute
/ - Slide up
\ - Slide down
+ - Harmonic

------------------------------------------------------

Intro (0:14-0:29)

D|---------------------------------------|
A|---------------------------------------|
F|---------------------------------------|
C|-222-2-2--5555-5-5--0000-0-0--33333333-| (x2)
G|-222-2-2--5555-5-5--0000-0-0--33333333-|
C|-222-2-2--5555-5-5--0000-0-0--33333333-|
   *** * *  **** * *  **** * *

Verse 1 (0:29-0:47)

D|-------------------------------------|
A|-------------------------------------|
F|-------------------------------------|
C|-0222----0222----0222----2-2-5-5-5\0-| (x2)
G|-0222----0222----0222----2-2-5-5-5\0-|
C|-0222----0222----0222----2-2-5-5-5\0-|
   ****    ****    ****    * * * * * *

Play this after the second time:

D|-----------------------------------------|
A|-----------------------------------------|
F|-----------------------------------------|
C|-7-10-10-10-10-10-10-7-7-7-7-------------|
G|-7-10-10-10-10-10-10-7-7-7-7-------------|
C|-7-10-10-10-10-10-10-7-7-7-7-------------|
   * *  *  *  *  *  *  * * * *

On the last set of 7's, slide down to 2, as the song will transition into the chorus.

Chorus (0:47-1:05)

D|---------------------------------------|
A|---------------------------------------|
F|---------------------------------------|
C|-222-2-2--5555-5-5--0000-0-0--33333333-| (x2)
G|-222-2-2--5555-5-5--0000-0-0--33333333-|
C|-222-2-2--5555-5-5--0000-0-0--33333333-|
   *** * *  **** * *  **** * *

Play this after the second time:

D|---------|
A|---------|
F|---------|
C|-9-9-9-5-|
G|-7-7-7-3-|
C|-7-7-7-3-|

Verse 2 (1:06-1:30)

D|-------------------------------------|
A|-------------------------------------|
F|-------------------------------------|
C|-0222----0222----0222----2-2-5-5-5\0-| (x3)
G|-0222----0222----0222----2-2-5-5-5\0-|
C|-0222----0222----0222----2-2-5-5-5\0-|
   ****    ****    ****    * * * * * *

Play this after the third time:

D|-----------------------------------------|
A|-----------------------------------------|
F|-----------------------------------------|
C|-7-10-10-10-10-10-10-7-7-7-7-------------|
G|-7-10-10-10-10-10-10-7-7-7-7-------------|
C|-7-10-10-10-10-10-10-7-7-7-7-------------|
   * *  *  *  *  *  *  * * * *

Remember to slide down to 2 on the last set of 7's.

Chorus (1:31-2:00)

D|---------------------------------------|
A|---------------------------------------|
F|---------------------------------------|
C|-222-2-2--5555-5-5--0000-0-0--33333333-| (x2)
G|-222-2-2--5555-5-5--0000-0-0--33333333-|
C|-222-2-2--5555-5-5--0000-0-0--33333333-|
   *** * *  **** * *  **** * *

D|------------------------------------|
A|------------------------------------|
F|------------------------------------|
C|-222-222--555-555--000-000--333-333-| (x2)
G|-222-222--555-555--000-000--333-333-|
C|-222-222--555-555--000-000--333-333-|
   *** ***  *** ***  *** ***  *** ***

Instead of playing the 3's after the second time, play this (and let it ring):

D|-----------------------------------------|
A|-----------------------------------------|
F|-----------------------------------------|
C|-5---------------------------------------|
G|-3---------------------------------------|
C|-3---------------------------------------|

Bridge (2:00-2:23)

D|---------------------------------------------|
A|---------------------------------------------|
F|---------------------------------------------|
C|-22-0---2-0-22-0---2-0-22-0---2-0-22-0-8-7-5-| (x3)
G|-22-0---2-0-22-0---2-0-22-0---2-0-22-0-8-7-5-|
C|-22-0-5-2-0-22-0-5-2-0-22-0-5-2-0-22-0-8-7-5-|
   ** * * * * ** * * * * ** * * * * ** * * * *

(2:23-2:42)

D|------------------------------------------------|
A|------------------------------------------------|
F|------5+----------5+----------5+----------------|
C|-22-0----2-0-22-0----2-0-22-0----2-0-22-5-8-7-5-|
G|-22-0----2-0-22-0----2-0-22-0----2-0-22-5-8-7-5-|
C|-22-0----2-0-22-0----2-0-22-0----2-0-22-5-8-7-5-|

D|----------------------------------------|
A|----------------------------------------|
F|------5+----------5+----------5+------5-|
C|-22-0----2-0-22-0----2-0-22-0----22-0-5-|
G|-22-0----2-0-22-0----2-0-22-0----22-0-3-|
C|-22-0----2-0-22-0----2-0-22-0----22-0---|

Chorus (2:45-3:16)

D|---------------------------------------|
A|---------------------------------------|
F|---------------------------------------|
C|-222-2-2--5555-5-5--0000-0-0--33333333-| (x2)
G|-222-2-2--5555-5-5--0000-0-0--33333333-|
C|-222-2-2--5555-5-5--0000-0-0--33333333-|
   *** * *  **** * *  **** * *

D|------------------------------------|
A|------------------------------------|
F|------------------------------------|
C|-222-222--555-555--000-000--333-333-| (x2)
G|-222-222--555-555--000-000--333-333-|
C|-222-222--555-555--000-000--333-333-|
   *** ***  *** ***  *** ***  *** ***

Instead of playing the 3's after the second time, play this (and let it ring):

D|-----------------------------------------|
A|-----------------------------------------|
F|-----------------------------------------|
C|-5---------------------------------------|
G|-3---------------------------------------|
C|-3---------------------------------------|
comments
print report bad tab
3 comments total.
+2 reply
raezor wrote on August 15 2014, 03:07 pm

The end of the chorus should be this instead.
D|------------------------------------|
A|------------------------------------|
F|------------------------------------|
C|-222-222--555-555--000-000--777-999-|
G|-222-222--555-555--000-000--777-999-|
C|-222-222--555-555--000-000--777-999-|
*** *** *** *** *** *** *** ***
D|---------------------------------|
A|---------------------------------|
F|---------------------------------|
C|-222-222--555-555--777-777--3~~~-|
G|-222-222--555-555--777-777--3~~~-|
C|-222-222--555-555--777-777--3~~~-|
*** *** *** *** *** *** *

-1 reply
Audible Warfare wrote on November 4 2014, 04:22 am

Tab incomplete. Missing every single lead. Now I need 16 more words so my vote will count. Now I need 5 more.

0 reply
holothewisewolf252.cs wrote on November 28 2015, 02:37 pm

This is very easy and playable!

I want to post or [tab]
guest
You may want to rate the tab now too:
select rating
Please do not post tabs as comments. Select "correction" instead!