Oops, an error
Loading. Please wait.

Break Free Tab

version 2
version 2

Whole song

Interactive

1,358 views 21 this week
6 commentsread comments
1 2 3 4 5
accurate
x 5
add to favorites
launch autoscroll
font size
0
reset
how to read this tab
guitar tuner
Tab Pro tools
  • play this tab
  • loop segment
  • change instrument
  • show fretboard
  • metronome
×
Best way to learn
"Break Free"
Autoscroll
slow
fast
+/-
esc
set tempo
stop
Contributor
Difficulty
Tuning
intermediate
C G C F A D
-------------------------------------------------------------------------------
BREAK FREE – Of Mice And Men
-------------------------------------------------------------------------------
Tabbed by: 1039idiot
E-mail: 1039idiot@gmail.com

Tuning: Drop C

OBS! x underneath note = palm mute


INTRO 

Lead (RIFF 1)

D|-121212121212------1212121212121212-|-121212-121212-1212-1212121212121212-|
A|-------------12h13-1212121212121212-|--8-8-8-101010-1212--x-x-x-x-x-x-x-x-|
F|------------------------------------|---------------------9-9-9-9-9-9-9-9-|
C|------------------------------------|-------------------------------------|
G|------------------------------------|-------------------------------------|
C|------------------------------------|-------------------------------------| x4

Rhythm

D|----------------------------------------------|
A|----------------------------------------------|
F|----------------------------------------------|
C|-2-2-2--2-2-5-5-5--5-5-5-5-5--5-5-3-3-3-3-3-3-|
G|-2-2-2--2-2-5-5-5--5-5-5-5-5--5-5-3-3-3-3-3-3-|
C|-2-2-2--2-2-5-5-5--5-5-0-0-0--0-0-3-3-3-3-3-3-| x2

VERSE 1

Rhythm

D|---------------|----------------------|
A|---------------|----------------------|
F|---------------|----------------------|
C|---------------|----------------------|
G|----22------22-|-----22------22--5-55-|
C|-0h222---0h222-|--0h222---0h222--5-55-|

D|---------------|--------------|
A|---------------|--------------|
F|---------------|--------------|
C|---------------|--------------|
G|----22------22-|-----22--5-77-|
C|-0h222---0h222-|--0h222--5-77-|

Lead

D|---------------|----------------------|
A|---------------|----------------------|
F|---------------|----------------------|
C|---------------|----------------------|
G|----22------22-|-----22------22--5-55-|
C|-0h222---0h222-|--0h222---0h222--5-55-|

D|----------------|------------------------------------|
A|----------------|------------------------------------|
F|-9(x16)-12(x16)-|-11(x16)-14141414141414-1717171717~-|
C|----------------|------------------------------------|
G|----------------|------------------------------------|
C|----------------|------------------------------------|

PRE CHORUS 

Both Guitars

D|---------------------------|
A|---------------------------|
F|---------------------------|
C|-10-10-1010-10-10-7-7-7-7\-|
G|-10-10-1010-10-10-7-7-7-7\-|
C|-10-10-1010-10-10-7-7-7-7\-|

Lead

D|-----------|
A|-----------|
F|--9999-----|
C|-----------|
G|-----------|
C------------|

CHORUS 1 

Rhythm

D|----------------------------------------------|
A|----------------------------------------------|
F|----------------------------------------------|
C|-2-2-2--2-2-5-5-5--5-5-5-5-5--5-5-3-3-3-3-3-3-|
G|-2-2-2--2-2-5-5-5--5-5-5-5-5--5-5-3-3-3-3-3-3-|
C|-2-2-2--2-2-5-5-5--5-5-0-0-0--0-0-3-3-3-3-3-3-| x2

D|---------------|
A|---------------|
F|---------------|
C|-7-7-7-7--7-3~-|
G|-7-7-7-7--7-3~-|
C|-7-7-7-7--7-3~-|

Lead

D|-121212121212------1212121212121212-|-121212-121212-1212-1212121212121212-|
A|-------------12h13-1212121212121212-|--8-8-8-101010-1212--x-x-x-x-x-x-x-x-|
F|------------------------------------|---------------------9-9-9-9-9-9-9-9-|
C|------------------------------------|-------------------------------------|
G|------------------------------------|-------------------------------------|
C|------------------------------------|-------------------------------------| x2

D|-121212121212-------------|
A|-------------12h13-12b~---|
F|--------------------------|
C|--------------------------|
G|--------------------------|
C|--------------------------|

VERSE 2 

Rhythm
D|---------------|----------------------|
A|---------------|----------------------|
F|---------------|----------------------|
C|---------------|----------------------|
G|----22------22-|-----22------22--5-55-|
C|-0h222---0h222-|--0h222---0h222--5-55-| x2

|-------------------------|--------------|
|-------------------------|--------------|
|--------------5*5*5*-----|--------------|
|--------------------5*5*-|--------------|
|----22------22-----------|-----22--5-77-|
|-0h222---0h222-----------|--0h222--5-77-|

Lead

D|---------------|----------------------|
A|---------------|----------------------|
F|---------------|----------------------|
C|---------------|----------------------|
G|----22------22-|-----22------22--5-55-|
C|-0h222---0h222-|--0h222---0h222--5-55-| x2

D|----------------|------------------------------------|
A|----------------|------------------------------------|
F|-9(x16)-12(x16)-|-11(x16)-14141414141414-1717171717~-|
C|----------------|------------------------------------|
G|----------------|------------------------------------|
C|----------------|------------------------------------|

PRE CHORUS

Both Guitars

D|---------------------------|
A|---------------------------|
F|---------------------------|
C|-10-10-1010-10-10-7-7-7-7\-|
G|-10-10-1010-10-10-7-7-7-7\-|
C|-10-10-1010-10-10-7-7-7-7\-|

Lead

D|-----------|
A|-----------|
F|--9999-----|
C|-----------|
G|-----------|
C------------|

CHORUS 2 

Rhythm

D|----------------------------------------------|
A|----------------------------------------------|
F|----------------------------------------------|
C|-2-2-2--2-2-5-5-5--5-5-5-5-5--5-5-3-3-3-3-3-3-|
G|-2-2-2--2-2-5-5-5--5-5-5-5-5--5-5-3-3-3-3-3-3-|
C|-2-2-2--2-2-5-5-5--5-5-0-0-0--0-0-3-3-3-3-3-3-| x2

D|---------------------|---------------------|
A|---------------------|---------------------|
F|---------------------|---------------------|
C|-2222-2222-5555-5555-|-0000-0000-7777-9999-|
G|-2222-2222-5555-5555-|-0000-0000-7777-9999-|
C|-2222-2222-5555-5555-|-0000-0000-7777-9999-|

D|---------------------|--------------|
A|---------------------|--------------|
F|---------------------|--------------|
C|-2222-2222-5555-5555-|-7777-7777-3~-|
G|-2222-2222-5555-5555-|-7777-7777-3~-|
C|-2222-2222-5555-5555-|-7777-7777-3~-|

Lead

D|-121212121212------1212121212121212-|-121212-121212-1212-1212121212121212-|
A|-------------12h13-1212121212121212-|--8-8-8-101010-1212--x-x-x-x-x-x-x-x-|
F|------------------------------------|---------------------9-9-9-9-9-9-9-9-|
C|------------------------------------|-------------------------------------|
G|------------------------------------|-------------------------------------|
C|------------------------------------|-------------------------------------| x2

D|-----------------------------|-------------------------------------|
A|-----------------------------|-------------------------------------|
F|-9999-9999-12121212-12121212-|-11111111-11111111-14141414-16161616-|
C|-xxxx-xxxx--x-x-x-x--x-x-x-x-|--x-x-x-x--x-x-x-x--x-x-x-x--x-x-x-x-|
G|-7777-7777-10101010-10101010-|--9-9-9-9--9-9-9-9-12121212-14141414-|
C|-----------------------------|-------------------------------------|

D|-121212121212------1212121212121212-|-121212-121212-1212-1212121212121212-|
A|-------------12h13-1212121212121212-|--8-8-8-101010-1212--x-x-x-x-x-x-x-x-|
F|------------------------------------|---------------------9-9-9-9-9-9-9-9-|
C|------------------------------------|-------------------------------------|
G|------------------------------------|-------------------------------------|
C|------------------------------------|-------------------------------------|

BRIDGE 

Both Guitars

D|-------------|-----------------|-----------------|-------------------|
A|-------------|-----------------|-----------------|-------------------|
F|-------------|-----------------|-----------------|-------------------|
C|---------5---|-------------4---|-------------5---|-------------------|
G|-------------|-----------------|-----------------|-------------------|
C|-0h2-2-0---2-|-2-0h2-2-0-----2-|-2-0h2-2-0-----2-|-2-0h2-2-0-8-7-5---| x2
   x x x x x x   x x x x x   x x   x x x x x   x x   x x x x x  

D|-------------|-----------------|-----------------|-------------------|
A|-------------|-----------------|-----------------|-------------------|
F|-------------|-----------------|-----------------|-------------------|
C|---------5---|-------------4---|-------------5---|-----------8-7-5---|
G|-------------|-----------------|-----------------|-----------8-7-5---|
C|-0h2-2-0---2-|-2-0h2-2-0-----2-|-2-0h2-2-0-----2-|-2-0h2-2-0-8-7-5---| 
   x x x x x x   x x x x x   x x   x x x x x   x x   x x x x x  

D|--------------|----------------|----------------|-----------------|
A|--------------|----------------|----------------|-----------------|
F|---------5*---|-----------5*---|-----------5*---|-----------------|
C|--------------|----------------|----------------|-----------8-7-5-|
G|--------------|----------------|----------------|-----------8-7-5-|
C|-0h2-2-0----2-|-0-0h2-2-0----2-|-0-0h2-2-0----2-|-0-0h2-2-0-8-7-5-|
         x                x                x                x
   
D|--------------|----------------|----------------|---------------|
A|--------------|----------------|----------------|---------------|
F|---------5*---|-----------5*---|-----------5*---|---------------|
C|--------------|----------------|----------------|-----------10~-|
G|--------------|----------------|----------------|-----------10~-|
C|-0h2-2-0----2-|-0-0h2-2-0----2-|-0-0h2-2-0----2-|-0-0h2-2-0-10~-|
         x                x                x                x

RIFF 1

Lead

D|-121212121212------1212121212121212-|-121212-121212-1212-1212121212121212-|
A|-------------12h13-1212121212121212-|--8-8-8-101010-1212--x-x-x-x-x-x-x-x-|
F|------------------------------------|---------------------9-9-9-9-9-9-9-9-|
C|------------------------------------|-------------------------------------|
G|------------------------------------|-------------------------------------|
C|------------------------------------|-------------------------------------|
Rhythm
D|------------------------------------|-----------------------------------|
A|-1212121212121212-13-12121212121212-|-1212121212121212-1010101010101010-|
F|------------------------------------|-----------------------------------|
C|------------------------------------|-----------------------------------|
G|------------------------------------|-----------------------------------|
C|------------------------------------|-----------------------------------|

CHORUS 3

Rhythm

D|----------------------------------------------|
A|----------------------------------------------|
F|----------------------------------------------|
C|-2-2-2--2-2-5-5-5--5-5-5-5-5--5-5-3-3-3-3-3-3-|
G|-2-2-2--2-2-5-5-5--5-5-5-5-5--5-5-3-3-3-3-3-3-|
C|-2-2-2--2-2-5-5-5--5-5-0-0-0--0-0-3-3-3-3-3-3-| x2

D|---------------------|---------------------|
A|---------------------|---------------------|
F|---------------------|---------------------|
C|-2222-2222-5555-5555-|-0000-0000-7777-9999-|
G|-2222-2222-5555-5555-|-0000-0000-7777-9999-|
C|-2222-2222-5555-5555-|-0000-0000-7777-9999-|

D|---------------------|--------------|
A|---------------------|--------------|
F|---------------------|--------------|
C|-2222-2222-5555-5555-|-7777-7777-3~-|
G|-2222-2222-5555-5555-|-7777-7777-3~-|
C|-2222-2222-5555-5555-|-7777-7777-3~-|

Lead

D|-121212121212------1212121212121212-|-121212-121212-1212-1212121212121212-|
A|-------------12h13-1212121212121212-|--8-8-8-101010-1212--x-x-x-x-x-x-x-x-|
F|------------------------------------|---------------------9-9-9-9-9-9-9-9-|
C|------------------------------------|-------------------------------------|
G|------------------------------------|-------------------------------------|
C|------------------------------------|-------------------------------------| x2

D|-----------------------------|-------------------------------------|
A|-----------------------------|-------------------------------------|
F|-9999-9999-12121212-12121212-|-11111111-11111111-14141414-16161616-|
C|-xxxx-xxxx--x-x-x-x--x-x-x-x-|--x-x-x-x--x-x-x-x--x-x-x-x--x-x-x-x-|
G|-7777-7777-10101010-10101010-|--9-9-9-9--9-9-9-9-12121212-14141414-|
C|-----------------------------|-------------------------------------|

D|-121212121212------1212121212121212-|-121212-121212-1212-1212121212121212-|
A|-------------12h13-1212121212121212-|--8-8-8-101010-1212--x-x-x-x-x-x-x-x-|
F|------------------------------------|---------------------9-9-9-9-9-9-9-9-|
C|------------------------------------|-------------------------------------|
G|------------------------------------|-------------------------------------|
C|------------------------------------|-------------------------------------|

OUTRO (RIFF 1, Lead)

D|-121212121212------1212121212121212-|-121212-121212-1212-1212121212121212-|
A|-------------12h13-1212121212121212-|--8-8-8-101010-1212--x-x-x-x-x-x-x-x-|
F|------------------------------------|---------------------9-9-9-9-9-9-9-9-|
C|------------------------------------|-------------------------------------|
G|------------------------------------|-------------------------------------|
C|------------------------------------|-------------------------------------|

Play until it fades out^



ORDER:
INTRO
VERSE 1
PRE CHORUS
CHORUS 1
VERSE 2
PRE CHORUS
CHORUS 2
BRIDGE
RIFF 1
CHORUS 3
OUTRO


************************************

| /   slide up
| \   slide down
| h   hammer-on
| p   pull-off
| ~   vibrato
| +   harmonic
| x   Mute note
| b   Bend
| pb  Pre-bend
| br  Bend release
| pbr Pre-bend release
| brb Bend release bend

************************************
comments
print report bad tab
6 comments total. Showing first comments.
0 reply
Sam_Guitarist wrote on August 18 2014, 09:56 am

Ill have to give this a go looks to be good ill let you know what I think once ive learnt it :)

0 reply
1039idiot wrote on August 24 2014, 09:24 am

I appreciate it! :)

0 reply
SaveMeTragedy wrote on October 26 2014, 10:25 am

Very awesome tab!! I absolutely love this song and this tab is 100% accurate from what I hear when I play it. Thanks for the tab!!!!

I want to post or [tab]
guest
You may want to rate the tab now too:
select rating
Please do not post tabs as comments. Select "correction" instead!