Oops, an error
Loading. Please wait.

Contagious Tab

1,120 views 483 this week
no commentswrite comment
1 2 3 4 5
2 more votes to show rating
add to favorites
launch autoscroll
font size
0
reset
how to read this tab
guitar tuner
Autoscroll
slow
fast
+/-
esc
set tempo
stop
Help us to improve Ultimate-Guitar.com Take our survey!
×
Author
Difficulty
Tuning
intermediate
C G C F A D
About this tab version
All the guitar portions of the song. Distortion effect used throughout the song. Was this info helpful? Yes No
Artist: Of Mice & Men
Song: Contagious
Album: Cold World
Composers: Austin Carlile, Alan Ashby and Aaron Pauley
Tabbed by: Java8
Tuning: Drop C (CGCFAD)


[Intro]
Riff 1
D|---------------------------------------------------------------------------|
A|---------------------------------------------------------------------------|
F|---------------------------------------------------------------------------|
C|---------------------------------------------------------------------------|x 2
G|-----------1-1-1-0---------------------------------------------------------|
C|--1-1-1-0-----------1-1-1-0--1-1-1-0--1-1-0-0-1-1-3-3----------------------|

[Pre-Verse]
Riff 2
D|---------------------------------------------------------------------------|
A|---------------------------------------------------------------------------|
F|---------------------------------------------------------------------------|
C|---------------------------------------------------------------------------|x 2
G|--------1-----------1------------------------------------------------------|
C|--1--0-----0--1--0-----0--1--0--1--3---------------------------------------|


[Verse 1]
Riff 3
D|---------------------------------------------------------------------------|
A|---------------------------------------------------------------------------|
F|---------------------------------------------------------------------------|
C|---------------------------------------------------------------------------|x 2
G|--------------------------------------------------------------10h12--------|
C|--10h12-x-0--10h12-x-0--10h12-x-0--10h12-x-0--10h12-x-x-10h12--------------|
     PM    PM   PM    PM   PM    PM   PM    PM   PM

D|---------------------------------------------------------------------------|
A|---------------------------------------------------------------------------|
F|---------------------------------------------------------------------------|
C|---------------------------------------------------------------------------|x 2
G|--------------------------------------------------------------10h12--------|
C|--10h12-x-0--10h12-x-0--10h12-x-0--10h12-x-0--10h12-x-x-10h12--------------|
     PM         PM         PM         PM         PM

D|---------------------------------------------------------------------------|
A|---------------------------------------------------------------------------|
F|---------------------------------------------------------------------------|
C|---------------------------------------------------------------------------|x 2
G|-------------------------------------------------------------------10h12---|
C|--10h12-x-0~--10h12-x-0~--10h12-x-0~--10h12-x-0~--10h12-x-x-10h12----------|


[Chorus 1]
Riff 4a
D|---------------------------------------------------------------------------|
A|---------------------------------------------------------------------------|
F|---------------------------------------------------------------------------|
C|---------------------------------------------------------------------------|
G|--10-10-13--13-13-13-12p10-------------------------------------------------|
C|--10-10-13--13-13-13-12p10--0-0-0-0-0-0-0-0-0-0-0-0-0-0-0-0----------------|

D|---------------------------------------------------------------------------|
A|---------------------------------------------------------------------------|
F|---------------------------------------------------------------------------|
C|---------------------------------------------------------------------------|
G|--10-10-13--13-13-13-12p10-------------------------------------------------|
C|--10-10-13--13-13-13-12p10--10h12-x-0-10h12-x-0-10h12----------------------|

Riff 4b
D|---------------------------------------------------------------------------|
A|---------------------------------------------------------------------------|
F|---------------------------------------------------------------------------|
C|---------------------------------------------------------------------------|
G|--10-10-13--13-13-13-12p10-------------------------------------------------|
C|--10-10-13--13-13-13-12p10--0-0-0-0-0-0-0-0-0-0-0-0-0-0-0-0----------------|

                                                x2
D|----------------------------|-----------------------------------------------|
A|----------------------------|-----------------------------------------------|
F|----------------------------|-----------------------------------------------|
C|----------------------------|-----------------------------------------------|
G|--10-10-13--13-13-13p12p10--|-------1-----------1---------------------------|
C|--10-10-13--13-13-13p12p10--|-1--0-----0--1--0-----0---1--0--1--3------------|


[Verse 2]
Riff 3
D|---------------------------------------------------------------------------|
A|---------------------------------------------------------------------------|
F|---------------------------------------------------------------------------|
C|---------------------------------------------------------------------------|x 2
G|--------------------------------------------------------------10h12--------|
C|--10h12-x-0--10h12-x-0--10h12-x-0--10h12-x-0--10h12-x-x-10h12--------------|
     PM    PM   PM    PM   PM    PM   PM    PM   PM

D|---------------------------------------------------------------------------|
A|---------------------------------------------------------------------------|
F|---------------------------------------------------------------------------|
C|---------------------------------------------------------------------------|x 2
G|--------------------------------------------------------------10h12--------|
C|--10h12-x-0--10h12-x-0--10h12-x-0--10h12-x-0--10h12-x-x-10h12--------------|
     PM         PM         PM         PM         PM

D|---------------------------------------------------------------------------|
A|---------------------------------------------------------------------------|
F|---------------------------------------------------------------------------|
C|---------------------------------------------------------------------------|x 2
G|-------------------------------------------------------------------10h12---|
C|--10h12-x-0~--10h12-x-0~--10h12-x-0~--10h12-x-0~--10h12-x-x-10h12----------|


[Chorus 2]
Riff 4a
D|---------------------------------------------------------------------------|
A|---------------------------------------------------------------------------|
F|---------------------------------------------------------------------------|
C|---------------------------------------------------------------------------|
G|--10-10-13--13-13-13-12p10-------------------------------------------------|
C|--10-10-13--13-13-13-12p10--0-0-0-0-0-0-0-0-0-0-0-0-0-0-0-0----------------|

D|---------------------------------------------------------------------------|
A|---------------------------------------------------------------------------|
F|---------------------------------------------------------------------------|
C|---------------------------------------------------------------------------|
G|--10-10-13--13-13-13-12p10-------------------------------------------------|
C|--10-10-13--13-13-13-12p10--10h12-x-0-10h12-x-0-10h12----------------------|

Riff 4b
D|---------------------------------------------------------------------------|
A|---------------------------------------------------------------------------|
F|---------------------------------------------------------------------------|
C|---------------------------------------------------------------------------|
G|--10-10-13--13-13-13-12p10-------------------------------------------------|
C|--10-10-13--13-13-13-12p10--0-0-0-0-0-0-0-0-0-0-0-0-0-0-0-0----------------|

D|----------------------------|----------------------------------------------|
A|----------------------------|----------------------------------------------|
F|----------------------------|----------------------------------------------|
C|----------------------------|----------------------------------------------|
G|--10-10-13--13-13-13p12p10--|-------1-----------1--------------------------|
C|--10-10-13--13-13-13p12p10--|-1--0-----0--1--0-----0--1--0--1--3-----------|

D|---------------------------------------------------------------------------|
A|---------------------------------------------------------------------------|
F|---------------------------------------------------------------------------|
C|---------------------------------------------------------------------------|
G|-0~------------------------------------------------------------------------|
C|-0~------------------------------------------------------------------------|

[Interlude]
Riff 5                                                 x4
D|-----------------------------------|---------------------------------------|
A|-----------------------------------|---------------------------------------|
F|-----------------------------------|---------------------------------------|
C|-----------------------------------|---------------------------------------|
G|-----------------------------------|---------------------------------------|
C|--12\\\\\\--0-(x19 times)--12\\\---|--0-0-0-0-0-0-0-0-1b1b1b1b1b1b1b1b-----|
                                                        

[Chorus - Last/Outro]
Riff 6
D|---------------------------------------------------------------------------|
A|---------------------------------------------------------------------------|
F|---------------------------------------------------------------------------|
C|---------------------------------------------------------------------------|
G|---------------------------------------------------------------------------|
C|--0-0-0-0-0-0-0-0-0-0-0-0-0-0-0-0------------------------------------------|
                                                 
                                                 x2
D|----------------------------|----------------------------------------------|
A|----------------------------|----------------------------------------------|
F|----------------------------|----------------------------------------------|
C|----------------------------|----------------------------------------------|
G|--10-10-13--13-13-13p12p10--|-------1-----------1--------------------------|
C|--10-10-13--13-13-13p12p10--|-1--0-----0--1--0-----0--1--0--1--3-----------|

Please let me know for any corrections.

************************************

| x   Dead note
| g   Grace note
| (n) Ghost note
| h   Hammer-on
| p   Pull-off
| r   Release
| >   Accented note
| t   Tapping
| b   Bend
| br  Bend release
| pb  Pre-bend
| pbr Pre-bend release
| /   Slide up
| \   Slide down
| ~   Vibrato
| s   Slap
| P   Pop
| PM  Palm mute
| TR  Trill
| N   Tremolo

************************************
Suggest correction
Give kudos to tab author, rate the tab!
1 2 3 4 5
comments
print report bad tab
guest
You may want to rate the tab now too:
select rating
Wanna post a correction for this tab? Suggest correction