Oops, an error
Loading. Please wait.

Depths Tab

version 1
version 1

Whole song

Interactive

22,989 views 81 this week
5 commentsread comments
1 2 3 4 5
excellent!
x 5
add to favorites
launch autoscroll
font size
0
reset
how to read this tab
guitar tuner
Tab Pro tools
  • play this tab
  • loop segment
  • change instrument
  • show fretboard
  • metronome
Autoscroll
slow
fast
+/-
esc
set tempo
stop
Contributor
Difficulty
Tuning
novice
A E A D F# B
Artist: Of Mice & Men
Song: Depths
Album: The Flood (Re-Issue)

Tuning: Drop A

A E A D F# B


The Bends Are All Different So Figure Out How Many Times And How Far 2 Bend Each One On 
Your Own.


Amazing Song,
Super Easy 2 Play/Learn.





(0:00 – 0:19)
1st Guitar
|-------------------------------------|
|-------------------------------------|
|-------------------------------------|(x4) (Repeat 4th Time Without Bend)
|-1--------1--------1--------1--------|
|-1-00--00-1-00--00-1-00--00-1-000----|
|-1-00--00-1-00--00-1-00--00-1-000-6b-|
    ..  ..   ..  ..   ..  ..   ...

(0:00 – 0:19)
2nd Guitar
|---------------------|
|---------------------|
|-15”b-17”b-19”b-20”b-|
|---------------------|
|---------------------|
|---------------------|


“Come On.. “
(0:19 – 0:30)
Both Guitar’s
|-------------------------------------------|
|-------------------------------------------|
|-------------------------------------------| (x2)
|-----------------------------------------6-|
|-----------------------------------------6-|
|-1b-00~-00~1b-00~-00~1b-00~-00~1b-00~000-6-|
                                      ...

(0:30 – 0:39)
Both Guitar’s
|--------------------------------------------------------|
|--------------------------------------------------------|
|--------------------------------------------------------|
|-------------------------------5-3-0-1~------5~---------|
|-------------------------------5-3-0-1~------5~---------|
|-1b-00--00-1b-00--00-1b-00--00-5-3-0-1~------5~-----14b-|


“Now Listen Up I’ll Say A Thing Or Two.. “
(0:39 – 0:58)
Both Guitar’s
|---------------------------------------------------------------|
|---------------------------------------------------------------|
|---------------------------------------------------------------| (x2)
|-----------------------------------------------------8”--------|
|------------------------------------------------------------8”-|
|-00-00-00-14b14b-00-00-10”-15"-00-00-00-14b14b-00—00----10”----|


“I’m Screaming..”  “My Body’s Failing.. “
(0:58 – 1:01)      (1:01 – 1:20)
Both Guitar’s      Both Guitar’s
|----------------| |----------------------------------------------------|
|----------------| |----------------------------------------------------|
|----------------| |----------------------------------------------------|(x2)
|----------------| |--------------------------6-------------------------|
|----------------| |----------------------000-6------------------000000-|
|-00--00--000000-| |-00-00-00-00-00-00-00-000-6-00-00-00-00------000000-|
                                          ...                    ......

“And I’m Gonna Miss Your Face.. “
(1:20 – 1:29)
1st Guitar
|--------------------------------------------------------|
|--------------------------------------------------------|
|--------------------------------------------------------|
|-5~---8-5------8~---12-8------1~------0~---(PickScrape)-|
|-5~-------5~---8~--------8~---1~------0~----------------|
|-5~------------8~-------------1~------0~----------------|


(1:20 – 1:29)
2nd Guitar
|----------------------|
|-20”-23”-22”-16”-15”--|
|----------------------|
|----------------------|
|----------------------|
|----------------------|


“And I Can’t Excape This Place.. “
(1:29 – 1:39)
1st Guitar
|-----------------------------------------------|
|-----------------------------------------------|
|-----------------------------------------------|
|-5~---8-5------8~---12-8------1~------0~-------|
|-5~-------5~---8~--------8~---1~------0~-------|
|-5~------------8~-------------1~------0~---14b-|


(1:29 – 1:39)
2nd Guitar
|-------------23”-22”-|
|-20”-23”-22”---------|
|---------------------|
|---------------------|
|---------------------|
|---------------------|


“And Now That You Don’t Even Care.. “
(1:39 – 1:58)
Both Guitar’s
|---------------------------------------------------------------|
|---------------------------------------------------------------|
|---------------------------------------------------------------| (x2)
|-----------------------------------------------------8”--------|
|------------------------------------------------------------8”-|
|-00-00-00-14b14b-00-00-10”-15"-00-00-00-14b14b-00-00----10”----|


“Scream With Me.. “
(1:58 – 2:23)
1st Guitar
|------------------------|
|------------------------|
|------------------------|(x5)
|-1----------------------|
|-1-00-------------------|
|-1-00-------------------|
    ..


“I’ve Been Put Down For Way Too Long.. “
(2:23 – 2:36)
1st Guitar
|-------------------------------------|
|-------------------------------------|
|-------------------------------------|(x3)
|-1--------1--------1--------1--------|
|-1-00--00-1-00--00-1-00--00-1-000----|
|-1-00--00-1-00--00-1-00--00-1-000-6b-|
    ..  ..   ..  ..   ..  ..   ...

“You’ll Never Be Good Enough.. “
(2:36 – 2:41)
1st Guitar
|-------------------------------|
|-------------------------------|
|-------------------------------|
|-1--------1--------1-----------|
|-1-00--00-1-00--00-1-00--00----|
|-1-00--00-1-00--00-1-00--00-1b-|
    ..  ..   ..  ..   ..  ..

“I’ve Been Put Down For Way Too Long.. “
(2:03 – 2:41)
2nd Guitar
|-----------------------------------------23”b~-|
|-------------------------------23”b-24”b-------|
|-15”b-17”b-19”b-20”b-22”b-24”b-----------------|
|-----------------------------------------------|
|-----------------------------------------------|
|-----------------------------------------------|


“Enough.. “
(2:41 – 2:46)
Both Guitar’s
|-------------------------------------------|
|-------------------------------------------|
|-------------------------------------------|
|-----------------------------------------6-|
|-------------------------------------000-6-|
|-1b-00~-00~1b-00~-00~1b-00~-00~1b-00~000-6-|
                                      ...

“Never Giving Up.. “
(2:46 – 2:52)
Both Guitar’s
|-----------------------------------------|
|-----------------------------------------|
|-----------------------------------------|
|-----------------------------------------|
|-------------------------------000000----|
|-1b-00~-00~1b-00~-00~1b-00~-00~111111-1b-|
                                ......

“Shut Up.. “
(2:52 – 2:57)
Both Guitar’s
|-------------------------------------------|
|-------------------------------------------|
|-------------------------------------------|
|-----------------------------------------6-|
|-----------------------------------------6-|
|-1b-00~-00~1b-00~-00~1b-00~-00~1b-00~000-6-|
                                      ...

“Shut Up.. “
(2:57 – 3:21)
Both Guitar’s
|-------------------------------------------------------------------------|
|-------------------------------------------------------------------------|
|-------------------------------------------------------------------------|
|------------------------------------0~--(Random Noises-------------------|
|------------------------------------0~--And PickScrapes)-----------------|
|-1b-00~-00~1b-00~-00~1~-------------0~--------------------00--00--000000-|

“My Body’s Failing.. “
(3:21 – 3:42)
Both Guitar’s
|-------------------------------------------------------|
|-------------------------------------------------------|(x2)
|-------------------------------------------------------|
|--------------------------6-------------6-5-3-5-3------|
|----------------------000-6-------------6-5-3-5-3------|
|-00-00-00-00-00-00-00-000-6-00-00-00-00-6-5-3-5-3-1b-0-|
                       ...






Please Comment/Correct/Rate.
comments
print report bad tab
5 comments total. Showing first comments.
+1 reply
justjoshuaaa wrote on June 24 2012, 10:44 am

I think this is actually the intro before Austin comes in. Not sure though.

|----------------------------------------|
|----------------------------------------|
|----------------------------------------|(x4)
|-1---------1---------1---------1--------|
|-1-00--000-1-00--000-1-00--000-1-00----|
|-1-00--000-1-00--000-1-00--000-1-00-6b-|
.. ... .. ... .. ... ..

0 reply
OMYGO$HIT$JOSH wrote on June 24 2012, 10:16 pm

That's The Exact Same Thing, Bro..

0 reply
chelseagrinme wrote on June 5 2013, 12:35 pm

What does the " Mean?

I want to post or [tab]
guest
You may want to rate the tab now too:
select rating
Please do not post tabs as comments. Select "correction" instead!