Oops, an error
Loading. Please wait.

Depths Tab

version 4
version 4

Whole song

Interactive

16,402 views 15 this week
13 commentsread comments
1 2 3 4 5
excellent!
x 19
add to favorites
launch autoscroll
font size
0
reset
how to read this tab
guitar tuner
Tab Pro tools
  • play this tab
  • loop segment
  • change instrument
  • show fretboard
  • metronome
×
Best way to learn
"Depths"
Autoscroll
slow
fast
+/-
esc
set tempo
stop
Contributor
Difficulty
Tuning
novice
A E A D F# B
This is my first tab guys, so be nice. The other tabs were pretty damn close, but I 
think this is spot on. Leave comments for corrections and please rate.
Thank you. c:

Intro 1
|------------------------------------|
|-----------------x3-----------------|
|------------------------------------|
|-1-00-000-1-00-000-1-00-000-1-00----|
|-1-00-000-1-00-000-1-00-000-1-00-6b-|
    .. ...   .. ...   .. ...   ..

Then on the 4th time around
|-----------------------------|
|-----------------------------|
|-----------------------------|
|-1-00-000-1-00-000-1-00-000--|
|-1-00-000-1-00-000-1-00-000--|
    .. ...   .. ...   .. ...

Intro 2
|--------------------------------------------|
|---------------------x2---------------------|
|--------------------------------------------|
|-------------------------------------------6|
|-----------------------------------------0-6|
|1b-00~-00~-1b-00~-00~-1b-00~-00~-1b-00~--0-6|
                                          .
|-------------------------------------------------|
|-------------------------------------------------|
|-------------------------------------------------|
|---------------------------5~-3~-1~-0~---5~------|
|---------------------------5~-3~-1~-0~---5~------|
|1b-00-00-1b-00-00-1b-00-00-5~-3~-1~-0~---5~-6b---|

Verse x2
|----------------||---------------||---------||---------------|
|----------------||--First+Third--||-Second--||----Fourth-----|
|----------------||---------------||---------||---------------|
|----------------||---------------||---------||-8"------------|
|----------------||---------------||---------||------------8"-|
|-0-00-0-00-0-00-||----14b-14b----||-11"-15"-||----10"-11"----|

Bridge
|-----|------|--------|
|-----|------|--------|
|Right|-Left-|--Both--|
|-----|------|--------|
|-----|------|--------|
|-000-|-000--|-000000-|

Pre-chorus
|--------------------|---------------|--------------|
|--------------------|--First+third--|-Second+last--|
|--------------------|---------------|--------------|
|--------------------|------------6--|--------------|
|--------------------|----------0-6--|-------000000-|
|-000-000-000000-000-|-000-000--0-6--|-------000000-|
                                             ......

Chorus
|--------------------------------------------------|
|-----------------------x2-------------------------|
|--------------------------------------------------|
|--5~--8-5----8~--12-8----1~--0~-------\PICKSLIDE--|
|--5~------8--8~-------8--1~--0~-------\PICKSLIDE--|
|--5~---------8~----------1~--0~-------------------|

Verse x2
|----------------||---------------||--------||---------------|
|----------------||--First+Third--||-Second-||----Fourth-----|
|----------------||---------------||--------||---------------|
|----------------||---------------||--------||-8"------------|
|----------------||---------------||--------||------------8"-|
|-0-00-0-00-0-00-||----14b-14b----||-11"15"-||----10"-11"----|

Pre breakdown
|------|
|--x5--|
|------|
|------|
|-1-00-|
|-1-00-|
    ..

|------------------------------------|
|------------------------------------|
|------------------------------------| x3
|-1-00-000-1-00-000-1-00-000-1-00----|
|-1-00-000-1-00-000-1-00-000-1-00-6b-|
    .. ...   .. ...   .. ...   ..

Then on the 4th time around
|-------------------------------|
|-------------------------------|
|-------------------------------|
|-1-00-000-1-00-000-1-00-000-1b-|
|-1-00-000-1-00-000-1-00-000-1b-|
    .. ...   .. ...   .. ...

Breakdown
|-------------------------------------------|
|-------------------------------------------|
|-------------------------------------------|
|------------------------------------------6|
|----------------------------------------0-6|
|1b-00~-00~-1b-00~-00~-1b-00~-00~-1b-00~-0-6|
                                         .

|-------------------------------------------|
|-------------------------------------------|
|-------------------------------------------|
|-------------------------------------------|
|---------------------------------000000-1b-|
|1b-00~-00~-1b-00~-00~-1b-00~-00~-000000-1b-|
                                  ......

|--------------------------------------------|
|--------------------------------------------|
|--------------------------------------------|
|-------------------------------------------6|
|-----------------------------------------0-6|
|1b-00~-00~-1b-00~-00~-1b-00~-00~-1b-00~--0-6|
                                          .
|---------------------|
|---------------------|
|---------------------|
|---------------------|
|---------------------|
|1b-00~-00~-1b-00~-0~-|

|----------------------------------|
|----------------------------------|
|----------------------------------|
|-0~-----[noise]-------\PICKSLIDE--|
|-0~-------------------\PICKSLIDE--|
|-0~-------------------------------|

Bridge
|-----|-----|--------|
|-----|-----|--------|
|Left-|Right|--Both--|
|-----|-----|--------|
|-----|-----|--------|
|-000-|-000-|-000000-|

|------------------------|-------------|------------|
|------------------------|-First+Third-|-Second+Last|
|------------------------|-------------|------------|
|------------------------|----------6--|--6-5-3-5-0-|
|------------------------|--------0-6--|--6-5-3-5-0-|
|-000-000-000000-000-000-|-000000-0-6--|--6-5-3-5-0-|
comments
print report bad tab
13 comments total. Showing first comments.
+2 reply
nyy centerfield wrote on October 3 2012, 09:39 pm

Nice Tab! None of the others seemed to be correct or even close. Good Job.

0 reply
justjoshuaaa wrote on November 4 2012, 12:06 am

Correction of my own tab:

There are slides before the verses and intro's etc.

|-------------------------------------|
|-----------------x3------------------|
|-------------------------------------|
|-1-00-000-1-00-000-1-00-000-1-00-----|
|-1-00-000-1-00-000-1-00-000-1-00-/6b-|
.. ... .. ... .. ... ..

0 reply
someguhtardude wrote on February 18 2013, 08:06 pm

i play this song and "The Flood" on my 7-string like OM&M does. other than that its a solid cover dude! nice job!

I want to post or [tab]
guest
You may want to rate the tab now too:
select rating
Please do not post tabs as comments. Select "correction" instead!